An Horse

Rearrange Beds

An Horse

1 exibições
  • Violão
  • Guitarra
  • Teclado
  • Cavaquinho
  • Contra-baixo
  • Bateria
  • Gaita
  • Guitar Pro
e ---------------------------------|
    B ---1-------3-------8------3------|
    G ---0-------0-------0------0------|
    D ---2--x4---4--x4---9--x4--4--x4--|        x6
    A ---3-------5------10------5------|
    E ---------------------------------|

    e ---------------------------|
    B ---1-----------------------|
    G ---0-------0-------0-------|
    D ---2--x4---2--x4---0--x8---|      x1
    A ---3-------2-------2-------|
    E -----------0-------3-------|

    e ---------------------------------|
    B ---1-------3-------8------3------|
    G ---0-------0-------0------0------|
    D ---2--x4---4--x4---9--x4--4--x4--|        x4
    A ---3-------5------10------5------|
    E ---------------------------------|

    e ---------------------------------------|
    B ---1-----------------------------------|
    G ---0--------0----0---------0---0-------|
    D ---2--x4----0----2--x4-----0---0--x8---|      x3
    A ---3--------0----2---------0---2-------|
    E ------------0----0---------0---3-------|

    e -----------------------------------------|
    B ---1-------------------------------------|
    G ---0--------0----0-----------0---0~------|
    D ---2--x8----0----2--x8-------0---0~------|      x1
    A ---3--------0----2-----------0---2~------|
    E ------------0----0-----------0---3~------|

    e ---------------------------------|
    B ---1-------3-------8------3------|
    G ---0-------0-------0------0------|
    D ---2--x4---4--x4---9--x4--4--x4--|        x6
    A ---3-------5------10------5------|
    E ---------------------------------|

    e ---------------------------------------|
    B ---1-----------------------------------|
    G ---0--------0----0---------0---0-------|
    D ---2--x4----0----2--x4-----0---0--x8---|      x4
    A ---3--------0----2---------0---2-------|
    E ------------0----0---------0---3-------|

    e ----------------------------------------|
    B ---1------------------------------------|
    G ---0--------0----0---------0---0--------|
    D ---2--x8----0----2--x8-----0---0--x16---|      x2
    A ---3--------0----2---------0---2--------|
    E ------------0----0---------0---3--------|

    e -------------------------------------|
    B ---1--------3--------8-------3-------|
    G ---0--------0--------0-------0-------|
    D ---2--x16---4--x16---9--x16--4--x16--|        x2
    A ---3--------5-------10-------5-------|
    E -------------------------------------|

    e ---------------------------------------|
    B ---1-----------------------------------|
    G ---0--------0----0---------0---0-------|
    D ---2--x4----0----2--x4-----0---0--x8---|      x4
    A ---3--------0----2---------0---2-------|
    E ------------0----0---------0---3-------|

    e ----------------------------------------|
    B ---1------------------------------------|
    G ---0--------0----0---------0---0--------|
    D ---2--x8----0----2--x8-----0---0--x16---|      x1
    A ---3--------0----2---------0---2--------|
    E ------------0----0---------0---3--------|

    e ----------------------------------------|
    B ---1------------------------------------|
    G ---0--------0----0----------0---0~------|
    D ---2--x8----0----2--x8------0---0~------|      x1
    A ---3--------0----2----------0---2~------|
    E ------------0----0----------0---3~------|

    -break-

    e ---------------------------------------|
    B ---1-----------------------------------|
    G ---0--------0----0---------0---0-------|
    D ---2--x4----0----2--x4-----0---0--x8---|      x1
    A ---3--------0----2---------0---2-------|
    E ------------0----0---------0---3-------|

    (Let ring very last chord)
    e ----------------------------------------|
    B ---1------------------------------------|
    G ---0--------0----0---------0---0--------|
    D ---2--x4----0----2--x4-----0---0--x15---|      x1
    A ---3--------0----2---------0---2--------|
    E ------------0----0---------0---3--------|


Enviada por Sem inscrição
Nº de acordes: 0