An Horse

Brain On A Table

An Horse

0 exibições
  • Violão
  • Guitarra
  • Teclado
  • Cavaquinho
  • Contra-baixo
  • Bateria
  • Gaita
  • Guitar Pro
Capotraste 4
standard tuning

"I know you wanted clouds for company../ I know you wanted someone else for company.."
|------------------|
|------------------|
|------------------|
|-5-5-5-5----------|
|-3-3-3-3-5-5-5-5--|
|---------3-3-3-3--|
But youve got me Youve got me~
|------------------------|
|------------------------|
|------------------------|
|------------------------|
|-2-2-2/7-7-7-7-7-7-7-7--|
|-3-3-3/8-8-8-8-8-8-8-8--|
And thats pretty much repeated throughout all of the verses

But im not asking for all that much
|-------------------------------|
|-------------------------------|
|-------------------------------|
|-5-5-5-5-5-7-7-7-7-7-9-9-9-9-9-|
|-3-3-3-3-3-5-5-5-5-5-7-7-7-7-7-|
|-------------------------------|

Just please wake up, please wake up~
|------------------------|
|------------------------|
|------------------------|
|------------------------|
|-2-2-2/7-7-7-7-7-7-7-7--|
|-3-3-3/8-8-8-8-8-8-8-8--|


Enviada por Sem inscrição
Nº de acordes: 0