AC/DC

The Jack

AC/DC

209 exibições
AC/DC - The Jack (versão TNT)

Dúvidas
E-mail: rafaelgumiela@yahoo.com.br
ICQ: 130976011

Introsução
G|-----------------------------------------|
D|-----------------------------------------|
A|-----------------------------------------|   (x3)
E|-7--7-7--7-7--7-7--7-5--5-5--5-5--5-5--5-|

G|-------------------|
D|-------------------|
A|-7--7-7--7-7--7-7--|
E|-------------------|

G|-------------------------------------|
D|-------------------------------------|
A|-------------------------------------|
E|-5-6-7---7--7-7-(etc)----------------|

G|--------------------------------------------------------|    
D|--------------------------------------------------------|    
A|--------------------------------------------------------|   (x2)    
E|--0--0--0--0--0--0--0-(...)-3-5--5--5--5--5--5--5-(...)-|

G|-------------------------------|
D|-------------------------------|
A|-0-0-0-0-0-0-0-0-0-0-0-0-0-----|
E|-------------------------------|

She's got the jack!
G|--------------------------------------------------|
D|--------------------------------------------------|
A|--------------------------------------------------|
E|-0--0-0--0-0--0-0--(...)--5--5-5--5-5--5-5-(...)--|
                           
                          She's got the jack! jack! jack....
G|------------------------------------------------------|
D|------------------------------------------------------|
A|------------------------2-2-2-2-(...) 0-0-0-0-(...)---|
E|-0--0-0--0-0--0-0-(...)-------------------------------|

G|----------------------==========--------|
D|----------------------------------------|
A|----------------------------------------|    
E|-0--0-0--0-0--0-0--0-0--0-0-5-6-7-------|

SOLO

G|--------------------------------------------------|
D|--------------------------------------------------|
A|--------------------------------------------------|
E|-0--0-0--0-0--0-0--(...)--5--5-5--5-5--5-5-(...)--|

G|------------------------------------------------------|
D|------------------------------------------------------|
A|------------------------2-2-2-2-(...) 0-0-0-0-(...)---|
E|-0--0-0--0-0--0-0-(...)-------------------------------|

G|----------------------==========--------|
D|----------------------------------------|
A|----------------------------------------|   Fim do Solo  
E|-0--0-0--0-0--0-0--0-0--0-0-5-6-7-------|

G|--------------------------------------------------------|    
D|--------------------------------------------------------|    
A|--------------------------------------------------------|   (x2)    
E|--0--0--0--0--0--0--0-(...)---5--5--5--5--5--5--5-(...)-|

She's got the jack!
G|--------------------------|
D|--------------------------|
A|--------------------------|
E|-0--0-0--0-0--0-0--(...)--|

Após o quarto she's got the jack
G|------------------------------|
D|------------------------------|
A|------------------------------|
E|--0-0-0--2-2-2--3-3-3--4-4-4--|

G|--------------------------|
D|--------------------------|
A|--------------------------|
E|--5--5-5--5-5--5-5-(...)--|
                           
                          She's got the jack! jack! jack....
G|------------------------------------------------------|
D|------------------------------------------------------|
A|------------------------2-2-2-2-(...) 0-0-0-0-(...)---|
E|-0--0-0--0-0--0-0-(...)-------------------------------|

G|----------------------------------------|
D|----------------------------------------|
A|----------------------------------------|
E|-0--0-0--0-0--0-0--0-0--0-0-5-6-7-------|

She's got the Jack..... She gave me Jack...
G|--------------------------------------------------|
D|--------------------------------------------------|
A|--------------------------------------------------|
E|-0--0-0--0-0--0-0--(...)--5--5-5--5-5--5-5-(...)--|
                           
                          She's got the jack! jack! jack....
G|------------------------------------------------------|
D|------------------------------------------------------|
A|------------------------2-2-2-2-(...) 0-0-0-0-(...)---|
E|-0--0-0--0-0--0-0-(...)-------------------------------|

G|----------------------------------------|
D|----------------------------------------|
A|----------------------------------------|    
E|-0--0-0--0-0--0-0--0-0--0-0-5-6-7-------|

She's got the jack!
G|--------------------------|
D|--------------------------|
A|--------------------------|
E|-0--0-0--0-0--0-0--(...)--|

Após o quarto she's got the jack
G|------------------------------|
D|------------------------------|
A|------------------------------|
E|--0-0-0--2-2-2--3-3-3--4-4-4--|

G|--------------------------|
D|--------------------------|
A|--------------------------|
E|--5--5-5--5-5--5-5-(...)--|

        She's got the jack! jack! jack....
G|---------------------------------------------------------------|
D|---------------------------------------------------------------|
A|------------------------2-2-2-2-(...)--------------------------|
E|-0--0-0--0-0--0-0-(...)---------------5--5-4--4-3--3-2--2-1----|

G|----------------|
D|----------------|
A|----------------|
E|--0-0-0-0-(...)-|



Enviada por Sem inscrição
Nº de acordes: 0