4 Non Blondes

Spaceman

4 Non Blondes

199 exibições
  • Violão
  • Guitarra
  • Teclado
  • Cavaquinho
  • Contra-baixo
  • Bateria
  • Gaita
  • Guitar Pro
Tom: G

Intro: 
e|----------------0------------|----------------0---------------|
b|----------3-------3---3------|----------3-------3---3---------| | Play this twice!
g|------0-----0-------0---0----|------0-----0-------0---0-------| |2x
D|----4---4-----4-----------4--|----0---0-----0-----------0-----| |
A|--5--------------------------|--3-----------------------------|
E|-----------------------------|--------------------------------|


  When she starts singing
  play this:

e|----0--------|--------0------------|
b|------3---3--|----------3---3------| | This is how the song goes thru
g|--------0----|------0-----0--------| | the hole song except for the part
D|-------------|----0----------------| | when she starts singing
A|--5----------|--3------------------| | spaceman....(the chords i think)  =P
E|-------------|---------------------|


 G            C4   
 Starry night bring me down
 G       C4   
 Til I realize the moon
 G            C4   
 It seems so distant yet
   G                  C4    
 I felt it pass Right through
G      C4         G
 And I see what I see
       C4            G
 A new world is over me
         C4              G
 So I'll reach up to the sky
         C4            
 And pretend that I'm a 

 
 Chords:
 G          D                  
 Spaceman in another place and time 
D
 I guess I'm lookin' for a 
 C
 brand new place 
                             G
 Is there a better life for me



 C4    - G - C4    - G - C4   



 G           C4   
 Subtle wind blow me gone
G       C4             G
 Let me rest upon your move
              C4   
 I trust I'll end up sleeping
 G             C4   
 Cradled in my doom 
G      C4          G
 And I feel what I feel
         C4                G
 I can't grasp what is not real
         C4              G
 So I'll get myself real high
      C4     
 And imagine I'm a 



 Chords:
 G           D                  
 Spaceman in another place and time 
D
 I guess I'm lookin' for a 
 C
 brand new place 
                             D
 Is there a better life for me


                  C4   
 I remember in my mind
                 D
 They say I'm daydreamin
       C4               
 Is it all that it seems
         D          
 Or am I all te things
      C4             G  
 I'm looking for yehehey

 Solo:
e|-------------------------------|--------------------------------------|
b|------3-1---0-------0-------0--|------3-1--0--------------------------| | This solo suck, so plz dont complain
g|--0-0-0-0---0-2-2/4-0-2-2/4 0--|--0-0-0-0--0-2/7-7^-5-4-4h5p4-0-------| | i could not do it better...this is my 5
D|----------------0-------0------|--------------------------------------| | or 6`st tab...
A|-------------------------------|--------------------------------------| |
E|-------------------------------|--------------------------------------|

e|-------------------------------|--------------------------------------|
b|------3-1---0-------0-------0--|------3-1--0-/8-5---1-0---3-0---------|
g|--0-0-0-0---0-2-2/4-0-2-2/4 0--|--0-0-0-0--0------7-----2-2-0---------|
D|----------------0-------0------|--------------------------------------|
A|-------------------------------|--------------------------------------|
E|-------------------------------|--------------------------------------|


G     C4         G
 So I see what I see
       C4            G
 A new world is over me
          C4              G
 And I'll reach up to the sky
     C4                 
 And pretend that I'm a


 Chords:
 G            D    
 Spaceman In another place and time
D                          C 
 I guess I'm looking for a brand new place         
D                       C
 I remember Living in a diferent life
                             G
 is there a better life for me


Enviada por Sem inscrição
Nº de acordes: 4