3 Doors Down

Away From The Sun

3 Doors Down

130 exibições
Am  [002210]
Bm  [x24432]
C   [x32010]
G   [355433]

Intro: (both guitars, clean)

Guitar I   e|------------------------------------------------------------0------------|
           B|----1-----1-----1---1-----0h1-----1-----1-----1---1-----0-3--------------|
           G|------2-----2---------0-------0-----0-----0---------0--------------------|
           D|--3-----3-----3---2-----2------------------------------------------------|
           A|--------------------------------3-----3-----3---2-----2------------------|
           E|-------------------------------------------------------------------------|


Guitar I   e|-------------------------------------------------------------------------|
           B|----1-----1-----1---1-----0h1---3---1---0-----3---1---0---1--------------|
           G|------2-----2---------0-----------0---0---0-----0---0---0----------------|
           D|--3-----3-----3---2-----2------------------------------------------------|
           A|-------------------------------------------------------------------------|
           E|------------------------------3-------------3----------------------------|

Guitar II  e|-------------------------------------------------------------------------|
           B|--1---------------1------------------------------------------------------|
           G|--2---------------0------------------------------------------------------|
           D|--3---------------2------------------------------------------------------|
           A|-------------------------------------------------------------------------|
           E|-------------------------------------------------------------------------|


VERSE I: (both guitars, clean)

Guitar I   e|------------------------------------------------------------0------------|
           B|----1-----1-----1---1-----0h1-----1-----1-----1---1-----0-3--------------|
           G|------2-----2---------0-------0-----0-----0---------0--------------------|
           D|--3-----3-----3---2-----2------------------------------------------------|
           A|--------------------------------3-----3-----3---2-----2------------------|
           E|-------------------------------------------------------------------------|


Guitar I   e|-------------------------------------------------------------------------|
           B|----1-----1-----1---1-----0h1---3---1---0-----3---1---0---1--------------|
           G|------2-----2---------0-----------0---0---0-----0---0---0----------------|
           D|--3-----3-----3---2-----2------------------------------------------------|
           A|-------------------------------------------------------------------------|
           E|------------------------------3-------------3----------------------------|

Guitar II  e|-------------------------------------------------------------------------|
           B|--1---------------1------------------------------------------------------|
           G|--2---------------0------------------------------------------------------|
           D|--3---------------2------------------------------------------------------|
           A|-------------------------------------------------------------------------|
           E|-------------------------------------------------------------------------|


Guitar I   e|------------------------------------------------------------0------------|
           B|----1-----1-----1---1-----0h1-----1-----1-----1---1-----0-3--------------|
           G|------2-----2---------0-------0-----0-----0---------0--------------------|
           D|--3-----3-----3---2-----2------------------------------------------------|
           A|--------------------------------3-----3-----3---2-----2------------------|
           E|-------------------------------------------------------------------------|


Guitar I   e|-------------------------------------------------------------------------|
           B|----1-----1-----1---1-----0h1---3---1---0-----3---1---0---1--------------|
           G|------2-----2---------0-----------0---0---0-----0---0---0----------------|
           D|--3-----3-----3---2-----2------------------------------------------------|
           A|-------------------------------------------------------------------------|
           E|------------------------------3-------------3----------------------------|

Guitar II  e|-------------------------------------------------------------------------|
           B|--1---------------1------------------------------------------------------|
           G|--2---------------0------------------------------------------------------|
           D|--3---------------2-------------------------------------2-2--------------|
           A|--------------------------------------------------------2-2--------------|
           E|--------------------------------------------------------0-0--------------|


CHORUS: (with heavy distortion)

Guitar I   e|-------------------------------------------------------------------------|
           B|-------------------------------------------------------------------------|
           G|----------0-----0------------0---------------0-----0---------------------|
           D|--3-----2-----0------3---2-3---------3-----2-----0------3-------0--------|
           A|--3---3-----2-----3--3---------~5-3--3---3-----2-----3--3---2-3----------|
           E|--1------------------1---------------1------------------1---------3------|


REPEAT Intro: (both guitars, clean)

Guitar I   e|--------------------------------------------------------------0----------|
           B|----1-----1-----1---1-----0h1-----1-----1-----1---1-----0h1-3------------|
           G|------2-----2---------0-------0-----0-----0---------0--------------------|
           D|--3-----3-----3---2-----2------------------------------------------------|
           A|--------------------------------3-----3-----3---2-----2------------------|
           E|-------------------------------------------------------------------------|

Guitar II  e|-------------------------------------------------------------------------|
           B|--1---------------1------------------------------------------------------|
           G|--2---------------0------------------------------------------------------|
           D|--3---------------2------------------------------------------------------|
           A|-------------------------------------------------------------------------|
           E|-------------------------------------------------------------------------|


Guitar I   e|-------------------------------------------------------------------------|
           B|----1-----1-----1---1-----0h1---3---1---0-----3---1---0---1--------------|
           G|------2-----2---------0-----------0---0---0-----0---0---0----------------|
           D|--3-----3-----3---2-----2------------------------------------------------|
           A|-------------------------------------------------------------------------|
           E|------------------------------3-------------3----------------------------|

Guitar II  e|-------------------------------------------------------------------------|
           B|--1---------------1------------------------------------------------------|
           G|--2---------------0------------------------------------------------------|
           D|--3---------------2------------------------------------------------------|
           A|-------------------------------------------------------------------------|
           E|-------------------------------------------------------------------------|


VERSE II: (both guitars, clean)

Guitar I   e|--------------------------------------------------------------0----------|
           B|----1-----1-----1---1-----0h1-----1-----1-----1---1-----0h1-3------------|
           G|------2-----2---------0-------0-----0-----0---------0--------------------|
           D|--3-----3-----3---2-----2------------------------------------------------|
           A|--------------------------------3-----3-----3---2-----2------------------|
           E|-------------------------------------------------------------------------|

Guitar II  e|-------------------------------------------------------------------------|
           B|--1---------------1------------------------------------------------------|
           G|--2---------------0------------------------------------------------------|
           D|--3---------------2------------------------------------------------------|
           A|-------------------------------------------------------------------------|
           E|-------------------------------------------------------------------------|


Guitar I   e|-------------------------------------------------------------------------|
           B|----1-----1-----1---1-----0h1---3---1---0-----3---1---0---1--------------|
           G|------2-----2---------0-----------0---0---0-----0---0---0----------------|
           D|--3-----3-----3---2-----2------------------------------------------------|
           A|-------------------------------------------------------------------------|
           E|------------------------------3-------------3----------------------------|

Guitar II  e|-------------------------------------------------------------------------|
           B|--1---------------1------------------------------------------------------|
           G|--2---------------0------------------------------------------------------|
           D|--3---------------2------------------------------------------------------|
           A|-------------------------------------------------------------------------|
           E|-------------------------------------------------------------------------|


Guitar I   e|--------------------------------------------------------------0----------|
           B|----1-----1-----1---1-----0h1-----1-----1-----1---1-----0h1-3------------|
           G|------2-----2---------0-------0-----0-----0---------0--------------------|
           D|--3-----3-----3---2-----2------------------------------------------------|
           A|--------------------------------3-----3-----3---2-----2------------------|
           E|-------------------------------------------------------------------------|


Guitar I   e|-------------------------------------------------------------------------|
           B|----1-----1-----1---1-----0h1---3---1---0-----3---1---0---1--------------|
           G|------2-----2---------0-----------0---0---0-----0---0---0----------------|
           D|--3-----3-----3---2-----2------------------------------------------------|
           A|-------------------------------------------------------------------------|
           E|------------------------------3-------------3----------------------------|

Guitar II  e|-------------------------------------------------------------------------|
           B|--1---------------1------------------------------------------------------|
           G|--2---------------0------------------------------------------------------|
           D|--3---------------2-------------------------------------2-2--------------|
           A|--------------------------------------------------------2-2--------------|
           E|--------------------------------------------------------0-0--------------|


CHORUS: (with heavy distortion)

Guitar I   e|-------------------------------------------------------------------------|
           B|-------------------------------------------------------------------------|
           G|----------0-----0------------0---------------0-----0---------------------|
           D|--3-----2-----0------3---2-3---------3-----2-----0------3-------0--------|
           A|--3---3-----2-----3--3---------~5-3--3---3-----2-----3--3---2-3----------|
           E|--1------------------1---------------1------------------1---------3------|


Guitar I   e|-------------------------------------------------------------------------|
           B|-------------------------------------------------------------------------|
           G|----------0-----0------------0---------------0-----0---------------------|
           D|--3-----2-----0------3---2-3---------3-----2-----0------3-------0--------|
           A|--3---3-----2-----3--3---------~5-3--3---3-----2-----3--3---2-3----------|
           E|--1------------------1---------------1------------------1---------3------|


INTERLUDE: (Guitar I clean, Guitar II with heavy distortion)


Guitar II      Am      Bm      C       G
Guitar I   e|------------------------------8/10-10-10\8-8/10--------------------------|
           B|-------------------------------------------------------------------------|
           G|-------------------------------------------------------------------------|
           D|-------------------------------------------------------------------------|
           A|-------------------------------------------------------------------------|
           E|-------------------------------------------------------------------------|


REPEAT Intro: (both guitars clean)

Guitar I   e|--------------------------------------------------------------0----------|
           B|----1-----1-----1---1-----0h1-----1-----1-----1---1-----0h1-3------------|
           G|------2-----2---------0-------0-----0-----0---------0--------------------|
           D|--3-----3-----3---2-----2------------------------------------------------|
           A|--------------------------------3-----3-----3---2-----2------------------|
           E|-------------------------------------------------------------------------|


Guitar I   e|-------------------------------------------------------------------------|
           B|----1-----1-----1---1-----0h1---3---1---0-----3---1---0---1--------------|
           G|------2-----2---------0-----------0---0---0-----0---0---0----------------|
           D|--3-----3-----3---2-----2------------------------------------------------|
           A|-------------------------------------------------------------------------|
           E|------------------------------3-------------3----------------------------|


Guitar I   e|--------------------------------------------------------------0----------|
           B|----1-----1-----1---1-----0h1-----1-----1-----1---1-----0h1-3------------|
           G|------2-----2---------0-------0-----0-----0---------0--------------------|
           D|--3-----3-----3---2-----2------------------------------------------------|
           A|--------------------------------3-----3-----3---2-----2------------------|
           E|-------------------------------------------------------------------------|


Guitar I   e|-------------------------------------------------------------------------|
           B|----1-----1-----1---1-----0h1---3---1---0-----3---1---0---1--------------|
           G|------2-----2---------0-----------0---0---0-----0---0---0----------------|
           D|--3-----3-----3---2-----2------------------------------------------------|
           A|-------------------------------------------------------------------------|
           E|------------------------------3-------------3----------------------------|

Guitar II  e|------------------------------3------------------------------------------|
           B|------------------------------3------------------------------------------|
           G|------------------------------0------------------------------------------|
           D|------------------------------0-------------------------2-2--------------|
           A|------------------------------2-------------------------2-2--------------|
           E|------------------------------3-------------------------0-0--------------|


CHORUS: (with heavy distortion)

Guitar I   e|-------------------------------------------------------------------------|
           B|-------------------------------------------------------------------------|
           G|----------0-----0------------0---------------0-----0---------------------|
           D|--3-----2-----0------3---2-3---------3-----2-----0------3-------0--------|
           A|--3---3-----2-----3--3---------~5-3--3---3-----2-----3--3---2-3----------|
           E|--1------------------1---------------1------------------1---------3------|


Guitar I   e|-------------------------------------------------------------------------|
           B|-------------------------------------------------------------------------|
           G|----------0-----0------------0---------------0-----0---------------------|
           D|--3-----2-----0------3---2-3---------3-----2-----0------3-------0--------|
           A|--3---3-----2-----3--3---------~5-3--3---3-----2-----3--3---2-3----------|
           E|--1------------------1---------------1------------------1---------3------|


Outro: (with heavy distortion, let the last chord ring)

Am     Bm     C     G


Enviada por Sem inscrição
Nº de acordes: 4