Tabbed By : jay1545
e-mail: *

Tuning: 5 string BEADG BUT I PLAY IT ON A TUNED DOWN 4 STRING
 VERSE 1 AND 2
D|----------------------------------------------------------------------------------|
A|----------------------------------------------------------------------------------|
E|----------------------------------------------------------------------------------|
B|--0------------3------------8-------8-7-------------------------------------------|
 CHORUS
D|----------------------------------------------------------------|
A|----------------------------------------------------------------|
E|----------------------------------------------------------------|
B|-----0--3--87---0---3--87---0--3--87----555---1010101-------0~--|             THESE ARE TENS
 BRIDGE PLAY TO GUITAR
D|-----------------------------------------------------------------------------------|
A|-----------------------------------------------------------------------------------|
E|---5555555555555555555555555--8888888888888888888888-------------------------------|
B|-----------------------------------------------------------------------------------|
 2ND PART
D|----------------------------------------------------------------------------------|
A|----------------------------------------------------------------------------------|
E|----------------------------------------------------------------------------------|
B|---0-------3------8--8-7----------------------------------------------------------|
REPEAT CHORUS TO END. THEN END WITH THIS
G|-------------------------------------------------------------------------------|
D|-------------------------------------------------------------------------------|
E|-------------------------------------------------------------------------------|
B|---0~--------------------------------------------------------------------------|

| /  slide up
|   slide down
| h  hammer-on
| p  pull-off
| ~  vibrato
| +  harmonic
| x  Mute note
===============================================================================


Enviada por Sem inscrição
Nº de acordes: