The Vaccines

All In White

The Vaccines

1 exibições
Intro 0:10 (13’s not 1’s and 3’s)

G|--------------------------------------------|
D|--------------------------------------------| 
A|-55555555/1313131313131313\8888888888888888-| x5
E|--------------------------------------------|

0:46

G|----------------------------------|
D|----------------------------------| 
A|-8-8-----------------3-3-1-1------|
E|-----8-8-6-6-1---1-----------1-1--|

0:54

G|----------------------------------|
D|----------------------------------| 
A|-33333333111111118888888888888888-|
E|----------------------------------|

G|----------------------------------|
D|----------------------------------| 
A|-3333333311111111-----------------|
E|-----------------1111111111111111-|

1:07

G|-----------------------------------|
D|-----------------------------------| 
A|1/8--88---5--55---1--11------------|
E|--------------------------1---11---|

G|----------------------------------|
D|----------------------------------| 
A|-8--88---5--55---1--11------------|
E|--------------------------1---11--|

1:23

G|----------------------------------|
D|----------------------------------| 
A|-11111111111111118888888888888888-|
E|----------------------------------|

G|----------------------------------|
D|----------------------------------| 
A|-1111111111111111-----------------|
E|-----------------1111111111111111-|

1:38

G|----------------------------------|
D|----------------------------------| 
A|/5555555511111111-----------------| x2
E|-----------------1111111111111111-|

G|----------------------------------|
D|----------------------------------| 
A|/55555555111111118888888888888888-| 
E|----------------------------------|

G|----------------------------------|
D|----------------------------------| 
A|/5555555511111111-----------------| 
E|-----------------1111111111111111-|

2:08

G|----------------------------------|
D|----------------------------------| 
A|-----3-3-1-1---------3-3-1-1------|
E|-1-----------1---1-----------1----|

G|----------------------------------|
D|----------------------------------| 
A|-33333333111111118888888888888888-|
E|----------------------------------|

G|----------------------------------|
D|----------------------------------| 
A|-3333333311111111-----------------|
E|-----------------1111111111111111-|

2:30

G|----------------------------------|
D|----------------------------------| 
A|-8--88-8-5--55-5-1--11-1----------|
E|-------------------------1--11-1--|

G|----------------------------------|
D|----------------------------------| 
A|---------5--55-5-1--11-1-88888888-|
E|-1--11-1--------------------------|

G|----------------------------------|
D|----------------------------------| 
A|-11111111111111118888888888888888-|
E|----------------------------------|

G|----------------------------------|
D|----------------------------------| 
A|-1111111111111111-----------------|
E|-----------------1111111111111111-|

2:59

G|----------------------------------|
D|----------------------------------| 
A|/5555555511111111-----------------|
E|-----------------1--11-1-1--11-1--|

G|----------------------------------|
D|----------------------------------| 
A|/5555555511111111-----------------|
E|-----------------11-11-1-11-11-1--|

G|----------------------------------|
D|----------------------------------| 
A|/55555555111111118888888888888888-|
E|----------------------------------|

G|----------------------------------|
D|----------------------------------| 
A|/5555555511111111-----------------|
E|-----------------11-11-1-111-1-1--|

3:29

G|----------------------------------|
D|----------------------------------| 
A|-8--88-8-5--55-5-1--11-1----------|
E|-------------------------1--11-1--|

G|----------------------------------|
D|----------------------------------| 
A|---------5--55-5-1--11-1-88888888-|
E|-1--11-1--------------------------|

G|----------------------------------|
D|----------------------------------| 
A|-11111111111111118888888888888888-|
E|----------------------------------|

G|----------------------------------|
D|----------------------------------| 
A|-1111111111111111-----------------|
E|-----------------1111111111111111-|

3:58

G|----------------------------------|
D|----------------------------------| 
A|1/8~------5~------1~--------------|
E|--------------------------1~------|

G|----------------------------------|
D|----------------------------------| 
A|---------5~------1~---------------|
E|-1~-----------------------1~------|


Enviada por Sem inscrição
Nº de acordes: