The Hoosiers

Worried About Ray

The Hoosiers

50 exibições
Tabbed By : Eilidh
e-mail: eilidhsouthren@hotmail.com

Tuning: EADG
Key: A minor

Intro
G|------------------------------------------------------------9------------|
D|-7-7-7-7-7-7-7-7-5-5-5-5-5-5-5-5----------------7-7-7-7-7-----9----------|
A|---------------------------------5-5-5-5-7-7-7-7----------7--------------|
E|-------------------------------------------------------------------------|

Verse
G|-------------------------------------------------------------------------|
D|-7~--------------5~-----------------------------7~-----------------------|
A|---------------------------------5~-----7~-------------------------------|
E|-------------------------------------------------------------------------|

Verse End
G|-----------|
D|-7-5-------|
A|-----8-7---|
E|-----------|

Chorus A
G|-------------------------------------------------------------------------|
D|-------------------------5-5-5-5-7-7-7-7-5-5-5-5-------------------------|
A|-8-8-8-8-8-8-8-8-5-5-5-5-------------------------------------------------|
E|-------------------------------------------------------------------------|

Chorus B
G|-----------------------------------55-77---------------------------------|
D|--------------------5-5-5-5--77-99---------------------------------------|
A|-8-8-8-8-8-8-5-5-5-5-----------------------------------------------------|
E|-------------------------------------------------------------------------|

G|------------------------55-77--------------------------------------------|
D|-----------------77-99---------------------------------------------------|
A|-8-8-8-8-8-8-8-8---------------------------------------------------------|
E|-------------------------------------------------------------------------|

Bridge
G|----------------------------------------|
D|-7-7-7-7-7-7-7-7-7-7-7-7-7-7-7-7--------|
A|----------------------------------------|
E|----------------------------------------|

::Order::

Intro x1
Verse x2
Verse End x1
Chorus A x2
Intro x1
Verse x2
Verse End x1
Chorus A x2
Chorus B x1
Chorus A x4
Bridge x1
Intro  x1 - End on A (D7)


| ~  vibrato


Enviada por Sem inscrição
Nº de acordes: