Tequila Baby

Volta Na Sua Cama

Tequila Baby

105 exibições
Intro-

1------]
2------]
3------]
4-(5)--]
 
Base
1----------------]
2----------------]
3-------(5)------]
4-(5)-------(5)--]

Refrão
1-----------------------------]
2-----------------------------]    2X
3----(5)-----(5)----(5)-------]
4-(2)----(2)-----(2)-----(5)--]

Quando A Guitarra Faz O Solo O Baixo Fica Assim :

1--------------------------------------------------]
2--------------------------------------------------]
3------(5)-----(5)----------(5)-----(5)------(5)---]
4-(5)-----(5)------(5)-(2)-----(2)-----(2)-----(5)-]

Final

1------------]
2------------]       8X
3------------]
4-(5)/4-(5)--]


Enviada por Sem inscrição
Nº de acordes: