Tequila Baby

Velhas Fotos

Tequila Baby

1.932 exibições
Versão Ao vivo

G --------------------------------------------
D --------------------------------------------
A -2-2-2-2------------------------------------
E ---------3-3-3-3----------------------------

Esta musica é 4 por 4, então conte 1,2,3,4 em velocidade normal, isto significa que voce vai contar até o 4 batendo na 2 casa da 3 corda(B), depois que contar 1,2,3,4 mude para a 3 casa da 4 corda (G)... 

Faça isso até ele gritar eu sei...e não disser mais nada e vai vim o solo...

SOLO

G ---------------------------------------------
D --------------------------------------------- 2X
A -2-2-2-2------------5-5-5-5------------------
E --------3-3-3-3----------------5-5-5-5-------

ESTE É O SOLO... DEPOIS ELE REPETA MAIS 2 VEZES O REFRÃO E GRITA NOVAMENTE EU SEI... E NÃO DIZ MAIS NADA... ESTE É O FINAL...

FINAL

G ----------------------------------------------
D ---------------------------------------------- 2X
A --2-2-2-2------------------------------------- 
E ---------3-3-3-3---5-5-5-5--6--6--7--7--7--7--

É ISSO AE.... É FACIL ESTA MUSICA...



Enviada por Sem inscrição
Nº de acordes: