Tequila Baby

Seja Com O Sol, Seja Com A Lua

Tequila Baby

158 exibições
G-----------------------------------------
D-----------------------------------------
A-----2-2-2-3-4-2-2-2---------------------
E-0-0------------------3-3-3-5-5-5--------

Chorus

G-----------------------------------------
D-----------------------------------------
A---1-1-1-5-5-5-3-3-3---------------------
E----------------------5-3-5-5-5-3-3-3----


Enviada por Sem inscrição
Nº de acordes: