Tequila Baby

Sangue, Ouro E Pólvora

Tequila Baby

315 exibições
G-------------------------------------------------------------------
D------------------------------------------------------------------
A-0------3------------------0--0-0-0-0-0-3-3-3-3-3-3-3--------------
E--------------3------0-------------------------------3-3-3-3-3-3-3

G---------------------------------------------------------------
D---------------------------------------------------------------
A-0-8-7-0-0-0-0-0-0-0-2-3-3-3-3-3-3-3-5-------------------------
E--------------------------------------3-3-3-3-3-3-3-1-1-1-0-0-0
aí repete mais tres vezes só que sem o A-0-8-7, apartir do 0.

no final tem
G----------------------------------------------------
D----------------------------------------------------
A-0-0-0-0-0-0--0-0-----------------------------------
E----------------------------------------------------

A música é uma vez a primeira parte e uma sem o A-0-8-7.

O refrão é
G----------------------------------------------------
D-----------------------------------3-3-3-3-5-5-5-5--
A-0-0-0-0-0-0----------------3-3-3-3-----------------
E------------1-1-1-1-3-3-3-3-------------------------


valeu galera e punk rock até os ossos....black squash na área


Enviada por Sem inscrição
Nº de acordes: