Tequila Baby

Prefiro Sua Mãe

Tequila Baby

105 exibições
escorregue o dedo da casa 5 da corda A até a casa 9 e o resto é assim 
G------------------------------------------------------
D------------------------------------------------------
A-2-2-2-2-5-5-5-5-2-0-2-0-0-2-0-2----------------------
E------------------------------------------------------

é uma vez cada maneira

G----------------------------------------------------
D----------------------------------------------------
A-2-2-2-2-5-5-5-5-2-2-2-2-2-2-2-2--------------------
E----------------------------------------------------

na parte rápida fica assim
G---------------------------------------------------------
D---------------------------------------------------------
A-2-2-2-2-------5-5-5-5-------2-2-2-2---------------5-5---
E--------2-2-2-2-------5-5-5-5-------2-2-2-2-3-3-3-3---5-5

valeu galera e punk rock até os ossos....black squash na área


Enviada por Sem inscrição
Nº de acordes: