Intro-Começa Apenas A Guitarra e Depois Entra A Bateria E O Baixo.

Intro Do Baixo
1-----]
2-----]
3-----]
4-(3)-]

Base E Refrão ( Os Dois São Devidamente Iguais )
1--------------------------------------------------]
2--------------------------------------------------]
3-----(3)--(5)-----(3)--(5)--(7)--(3)--(5)-----(5)-]
4-(3)----------(3)--------------------------(3)----]

Cubos De Gelo Não Vão Me Salvar .....
1-------------]
2-------------]
3-(2)----(5)--]
4-----(3)-----]

Do Calor Que Eu Sinto, Quando Estou Com Vc Ardendo em Chamas, Vendo Tudo Queimando Ao Redor .
1---------------]
2---------------]      4-(5*)-Esta Corda Deve Ser 
3-(2)---(5)-----]             Tocada Por Bastante
4----(3)---(5*)-]                   Tempo.

Nesta Parte Da Música Eles Tocam Com Uma Gaita E O Baixo Deve Tocar Assim :
1--------------------------------]
2--------------------------------]
3----(5)-----(5)------(5)--------]
4-(3)----(3)-----(3)-------(5*)--]

Oh Negue,Negue,Negue LaLaLaLaLaLa  Negue Uhu ,Uhu...
1--------------------------------------------------]
2--------------------------------------------------]
3----(3)--(5)----(3)--(5)----(3)--(5)----(3)--(5)--]
4-(3)---------(3)---------(3)---------(3)----------]

Nesta Parte Vc Deve Toca Na Corda Uma Vez Só.
A Bateria Fica Tocando Como A Bandinha Do Exercito
1------]
2------]  5X
3------]
4-3----]




Enviada por Sem inscrição
Nº de acordes: