Tabbed by Bruno Todeschini (brunotk@zipmail.com.br)

Intro (Primeiro é só a bateria, depois a guitarra toca duas vezes a intro, só aí é que entra o baixo, quando o Duda começa a cantar)

G|-----------------------------------------------------------------------------------------
D|-----------------------------------------------------------------------------------------
A|-----------------------------------------------------------------------------------------
E|-0-2-3-4-4-4-4-4-4-4-4/-12-12-12-12-12-12-12-12\-9-9-9-9-9-9-9-9-9-9-9-9-9-9-9-9-0-2-3-4-

Verso

G|---------------------------------------------------------------------------
D|---------------------------------------------------------------------------
A|---------------------------------------------------------------------------
E|-4-4-4-4-4-4-4-4/-12-12-12-12-12-12-12-12\-9-9-9-9-9-9-9-9-9-9-9-9-9-9-9-9-

1º Refrão

G|----------------------------------------------------------------------------------
D|----------------------------------------------------------------------------------
A|---------------------------------------------------------------7-9-9-9-9-9-9--7---
E|-222222-4-4-4-4-4-4-4-4/-12-12-12-12-12-12-12-12\-7--7-7-7-7-9------------------9-

G|---------------------------------------------------------------------------------------
D|---------------------------------------------------------------------------------------
A|---------------------------------------------------------------------------6-6-6-6-4-2-
E|-4-4-4-4-4-4-4-4/-12-12-12-12-12-12-12-12\-9-9-9-9-9-9-9-9-9-9-9-9-9-9-9-9-------------

Intro (só que sem a primeira paarte do E|-0-2-3-|)

Verso

2º Parte do verso ("NUnca importou o que eu fiz por você...")

G|----------------------------------------------------------------------------------
D|----------------------------------------------------------------------------------
A|----------------------------------------------------------------------------------
E|-222222-4-4-4-4-4-4-4-4/-12-12-12-12-12-12-12-12\-9-9-9-9-9-9-9-9-9-9-9-9-9-9-9-9-

G|--------------------------------------------------------------
D|--------------------------------------------------------------
A|--------------------------------------------------11-11-11-11-
E|-0-2-3-4-4-4-4-4-4-4-4/-12-12-12-12-12-12-12-12\-9--9--9--9---

2º Refrão

G|------------------------------------------------------------------------------------
D|------------------------------------------------------------------------------------
A|---------------------------------------------------------------7-9-9-9-9-9-9-11-9-7-
E|-222222-4-4-4-4-4-4-4-4\-12-12-12-12-12-12-12-12/-7--7-7-7-7-9----------------------

G|---------------------------------------------------------------------------
D|---------------------------------------------------------------------------
A|---------------------------------------------------------------------------
E|-4-4-4-4-4-4-4-4\-12-12-12-12-12-12-12-12/-9-9-9-9-9-9-9-9-9-9-9-9-9-9-9-9-

G|-------------------------------------------------------------------------------
D|-------------------------------------------------------------------------------
A|------------------------------------------------------------7-9-9-9-9-9-9--7---
E|-0-2-3-4-4-4-4-4-4-4\-12-12-12-12-12-12-12-12/-7--7-7-7-7-9------------------9-

G|---------------------------------------------------------------------------------------
D|---------------------------------------------------------------------------------------
A|---------------------------------------------------------------------------6-6-6-6-4-2-
E|-4-4-4-4-4-4-4-4/-12-12-12-12-12-12-12-12\-9-9-9-9-9-9-9-9-9-9-9-9-9-9-9-9-------------

G|---------------------------------------------------------------------------
D|---------------------------------------------------------------------------
A|---------------------------------------------------------------------------
E|-4-4-4-4-4-4-4-4\-12-12-12-12-12-12-12-12/-9-9-9-9-9-9-9-9-9-9-9-9-9-9-9-9-

G|-------------------------------------------------------------------------------
D|-------------------------------------------------------------------------------
A|-------------------------------------------------------------------------------
E|-0-2-3-4-4-4-4-4-4-4\-12-12-12-12-12-12-12-12/-9-9-9-9-9-9-9-9-9-9-9-9-9-9-9-9-


1º Solo

G|---------------------------------------------------------------------
D|---------------------------------------------------------------------
A|---------------------4\-7-7-7-7-7-9b-7-7-7-7-7-7-7-7-7-7-7-7-7-7-7-7-
E|-0-2-3-4-4-4-4-4-4-4-------------------------------------------------

G|------------------------------------------------------------------------------
D|------------------------------------------------------------------------------
A|---------------------4\-7-7-7-7-7-9b-7-7-7-7-7-7-7-7-7-7-7-7-7-7-7-7-99999999-
E|-0-2-3-4-4-4-4-4-4-4----------------------------------------------------------

3º Refrão

G|------------------------------------------------------------------------------------
D|------------------------------------------------------------------------------------
A|---------------------------------------------------------------7-9-9-9-9-9-9-11-9-7-
E|-222222-4-4-4-4-4-4-4-4\-12-12-12-12-12-12-12-12/-7--7-7-7-7-9----------------------

G|---------------------------------------------------------------------------
D|---------------------------------------------------------------------------
A|---------------------------------------------------------------------------
E|-4-4-4-4-4-4-4-4\-12-12-12-12-12-12-12-12/-9-9-9-9-9-9-9-9-9-9-9-9-9-9-9-9-

G|-------------------------------------------------------------------------------
D|-------------------------------------------------------------------------------
A|-------------------------------------------------------------7-9-9-9-9-9-9--7--
E|-0-2-3-4-4-4-4-4-4-4\-12-12-12-12-12-12-12-12/-7--7-7-7-7-9------------------9-

G|---------------------------------------------------------------------------------------
D|---------------------------------------------------------------------------------------
A|---------------------------------------------------------------------------6-6-6-6-4-2-
E|-4-4-4-4-4-4-4-4/-12-12-12-12-12-12-12-12\-9-9-9-9-9-9-9-9-9-9-9-9-9-9-9-9-------------

Ponte

G|---------------------------------------------------------------------------
D|---------------------------------------------------------------------------
A|---------------------------------------------------------------------------
E|-4-4-4-4-4-4-4-4\-12-12-12-12-12-12-12-12/-9-9-9-9-9-9-9-9-9-9-9-9-9-9-9-9-

G|-------------------------------------------------------------------------------
D|-------------------------------------------------------------------------------
A|-------------------------------------------------------------------------------
E|-0-2-3-4-4-4-4-4-4-4\-12-12-12-12-12-12-12-12/-9-9-9-9-9-9-9-9-9-9-9-9-9-9-9-9-

2º Solo

G|-------------------------------------------------------------------------------
D|-------------------------------------------------------------------------------
A|-------------------------------------------------------------------------------
E|-0-2-3-4-4-4-4-4-4-4\-12-12-12-12-12-12-12-12/-9-9-9-9-9-9-9-9-9-9-9-9-9-9-9-9-

G|---------------------------------------------------------------------------
D|---------------------------------------------------------------------------
A|---------------------------------------------------------------------------
E|-4-4-4-4-4-4-4-4\-12-12-12-12-12-12-12-12/-9-9-9-9-9-9-9-9-9-9-9-9-9-9-9-9-

Último Refrão

G|------------------------------------------------------------------------------------
D|------------------------------------------------------------------------------------
A|---------------------------------------------------------------7-9-9-9-9-9-9-11-9-7-
E|-222222-4-4-4-4-4-4-4-4\-12-12-12-12-12-12-12-12/-7--7-7-7-7-9----------------------

G|---------------------------------------------------------------------------
D|---------------------------------------------------------------------------
A|---------------------------------------------------------------------------
E|-4-4-4-4-4-4-4-4\-12-12-12-12-12-12-12-12/-9-9-9-9-9-9-9-9-9-9-9-9-9-9-9-9-

G|----------------------------------------------------------------------------------
D|----------------------------------------------------------------------------------
A|---------------------------------------------------------------7-9-9-9-9-9-9--7---
E|-222222-4-4-4-4-4-4-4-4/-12-12-12-12-12-12-12-12\-7--7-7-7-7-9------------------9-

G|----------------------------------------------------------------------------------------
D|----------------------------------------------------------------------------------------
A|----------------------------------------------------------------------------------------
E|-4-4-4-4-4-4-4-4\-12-12-12-12-12-12-12-12/-9-9-9-9-9-9-9-9-9-9-9-9-9-9-9-9-121212121212-

G|------------------------------------------------------------------------------------
D|------------------------------------------------------------------------------------
A|---------------------------------------------------------------7-9-9-9-9-9-9-11-9-7-
E|-222222-4-4-4-4-4-4-4-4\-12-12-12-12-12-12-12-12/-7--7-7-7-7-9----------------------

G|---------------------------------------------------------------------------
D|---------------------------------------------------------------------------
A|---------------------------------------------------------------------------
E|-4-4-4-4-4-4-4-4\-12-12-12-12-12-12-12-12/-9-9-9-9-9-9-9-9-9-9-9-9-9-9-9-9-

Final

G|---------------------------------------------------------------------------
D|---------------------------------------------------------------------------
A|---------------------------------------------------------------------------
E|-4-4-4-4-4-4-4-4\-12-12-12-12-12-12-12-12/-9-9-9-9-9-9-9-9-9-9-9-9-9-9-9-9-

G|-------------------------------------------------------------------------------
D|-------------------------------------------------------------------------------
A|-------------------------------------------------------------------------------
E|-0-2-3-4-4-4-4-4-4-4\-12-12-12-12-12-12-12-12/-9-9-9-9-9-9-9-9-9-9-9-9-9-9-9-9-

G|-----------------
D|-----------------
A|-----------------
E|-11-11-11-11-9-7-


Legenda:
\: slide p/ baixo
/: slide p/ cima
b: bend


Acho que essa vesão está quase 100% correta (eu tenho algumas dúvidas no primeiro
 solo), mas caso você queira trocar as oitavas, basta substituir os E|-12- por
 um A|-7-, e os E|-9- por A|-4- e aí você faz as alterações que achar melhor.
 Qualquer dúvida, correção ou sugestão me mande um e-mail.


Enviada por Sem inscrição
Nº de acordes: