Chorus
F|--------------------------------------------------   (2x)
C|--------------------------------------------------
G|--------------------------4-4-4-4-4-4-------------
C|-0-0-0-0-0-0--6-6-6-6-6-6-------------5-5-5-5-5-5-

VERSO 1
F|-------------------13-13-13-13-13-13-------------------12-12-12-12-12-12--  (2x)
C|-12-12-12-12-12-12-------------------11-11-11-11-11-11--------------------
G|--------------------------------------------------------------------------
C|--------------------------------------------------------------------------

CHORUS

VERSO 1

VERSO 2
F|------------------------------------------------
C|---6-6^6---5-5^5--------------------------------(^=bend)  (2x)
G|-5-------4--------------------------------------
C|------------------------------------------------

CHORUS

Verso 3
F|------------------------------------------------
C|------------------------------------------------
G|-----------------4~~----------------------------
C|-------0~~---6~~-------5~~----------------------

Verso 4
F|------------------------------------------------
C|------------------------------------------------
G|------------------------444444444444------------
C|000000000000666666666666------------555555555555

Verso 5

F|------------------------------------------------
C|------------------------------------------------
G|-----------------------4~~~~~~------------------
C|---------0~~~~~~6~~~~~~-------5~~~~~~~----------
"clock man..."

CHORUS

Verso 6
F|--------------------------------------------------
C|--------------------------------------------------
G|-------------------4----------------------4-------
C|---------0-----6-------5-----0-----6--------------

"do you love me, idon't know"




i eh isso ai, pode toca q eh facil hahaha  =D 
dúvidas:pedro_vtr@hotmail.com


Enviada por Sem inscrição
Nº de acordes: