riff I
                          x8
F|-------------------------|
C|-------------------------|
G|-------------------------|
C|--8--77-88-77-88-77-878--|

riff II

F||------------------------------------------------------------||
C||*----------------------------------------------------------*||
G||*------------------------------0-0-4--0-0-4--0-0-4--0-0-4--*||
C||---8-8-7--8-8-7--8-8-7--8-8-7-------------------------------||


riff I x4
riff II
riff I x4

                                              x4             x4
F|-----|--------|------------------------------|--------------|
C|-----|--------|------------------------------|--------------|
G|-----|--REST--|------------------------------|--------------|
C|--0--|--------|--\\--88-0--88-0--88-0--88-0--|--8--8--8--8--|

                               x3
F|------------------------------|------------------------------|
C|------------------------------|------------------------------|
G|------------------------------|--0-0-4--0-0-4--0-0-4--0-0-4--|
C|--8-8-7--8-8-7--8-8-7--8-8-7--|------------------------------|

riff I x4


_______________________________________________________
Contribuição: Cristina(crisgs@msn.com)


Enviada por Sem inscrição
Nº de acordes: