Switchfoot

Only Hope

Switchfoot

21 exibições
intro:
g-----------7-9---7-7-7------------------------------
d-------9-------9-------10-9-9-7---------------------
a---7----------------------------10-7-9-10-10-9-7----
e-------------------------------------------------11-

g-----------7-------7-7-7----------------------------
d-------9-----10-9-------10-9-9-7-------------------
a---7----------------------------10-7-9-10-10-9-7----
e-------------------------------------------------11-

Verse:

(strum at the mentioned frets the way u want to suit the song)

g---------------------------------------------------------|
d---------------------------9-----------------------5-----|
a-------7-------------------------------------------------|
e---------------------------------------------------------|


g----------------------------------------------------------------------------|
d-------------------------------9--------------5-----------------------------|
a------7----------------------------------------------------5------3------32-|
e----------------------------------------------------------------------------|
the last part on "a" string may be a filler before he start with the "i'm awake..."

g---------------------------------------------------------|
d----------------------9----------5-----------------------|
a------7--------------------------------------------------|
e---------------------------------------------------------|

g---------------------------------------------------------|
d----------------------9---------5------------------------|
a------7------------------------------5-------3-----------|
e---------------------------------------------------------|

chorus

g----------------------------|
d-------------9------9-------|
a-----7----------6--------4--|(play around on this fret till singin starts again)
e----------------------------|


g-----------------------------------------------------------|
d--------------9-------9----11-------------11---------------|
a-----7-----------6---------------7-----5-------7----5------|
e-----------------------------------------------------------|


g--------------------------------------------------------------|
d------------------------------ 9------------------------------|
a-----3---------------------------------------7----------------|
e--------------------------------------------------------------|


play the second verse and the chorus the same way

bridge x2
g----------------------------------------------------------------------------|
d--------9-9---9-9---------9-9--------------9-9------------------------------|
a------7------5-------9-9-7--------10-10--5--------10-10----9-9--------------|
e--------------------7------------8----------------8---------7---------------|

the part in the bridge when the singing starts
g----------------------------------------------------------|
d----------------7-------------5---------------------------|
a-------------------------------------------2--------------|
e----------------------------------------------------------|

g----------------------------------------------------------|
d----------------7-------------5---------------------------|
a-------------------------------------------2--------------|
e----------------------------------------------------------|


g----------------------------------------------------------|
d----------------7-------------5---------------------------|
a-------------------------------------------2--------------|
e----------------------------------------------------------|


g---------------------------------------------------------------------|
d---------4-4-4-4-4-4-4…-----------10-10-10-10…-----------------------|
a---------------------------------------------------------------------|
e---------------------------------------------------------------------|

(I don’t think the last part is precise)


Enviada por Sem inscrição
Nº de acordes: