Switchfoot

Learning To Breathe

Switchfoot

50 exibições
Tabbed by Adam Harger *

Standard tuning
G|
D|
A|
E|

INTRO
I'll leave the intro up to you. Here are the chords for convenience:
G  C  G  C  Dsus  D
Then you can go into verse with a slide down from D and then:
 |----------------|
 |00000000--------|
 |--------33333333|
 |----------------|


VERSE 1 (2x)
 |----------------|
 |----------------|
 |0------02-3-----|
 |----------------|

 |----------------|
 |------00----54-0|
 |----22----02----|
 |3333-----3------|

BRIDGE
 |------------------------|
 |----------------00000000|
 |3-------2---------------|
 |------------------------|

CHORUS
 |----------------|
.|----------------|
.|33--3322--------|
 |---3----00--2233|

 |----------------|
 |------0022--4455|.
 |33--33----------|.
 |---3------------| (2x)

 |----------------|
 |00000000--------|
 |--------33333333|
 |----------------|

VERSE 2 (2x)
 |----------------|
 |--55--5---55--5-|
 |0---00-33---33--|
 |----------------|

 |----------------|
 |------00----54-0|
 |----22----02----|
 |3333-----3------|

Now go straight to CHORUS

After 2nd CHORUS:
MIDSECTION
 |------------7---|
.|--------5-59-9--|
.|/7--9----7------|
 |----------------|

 |----------------|
 |------00----54-0|.
 |----22----02----|.
 |3333-----3------| (2x)

Then back to BRIDGE (4X) then to CHORUS

That's just about all you need. All tabbed by ear, with some help of
knowing the chords. Here's the entire song order:

INTRO
VERSE 1 (2x)
BRIDGE
CHORUS
VERSE 2 (2x)
CHORUS
MIDSECTION
BRIDGE
CHORUS

And the end is basically the chorus repeated a few times. Hope this does some good!


Enviada por Sem inscrição
Nº de acordes: