Slipknot

Before I Forget

Slipknot

3.027 exibições
Riff 1
G-----------------------|
D-----------------------|
A-----------------------|
E-----------------------|
B-0H2-0H2-0H2-0H2-3p2p0-|

Riff 2
G----------------------|
D----------------------|
A----------------------|
E----------------------|
B-5-5-5-0--5-5-5-0-----|

Riff 3
G-----------------------|
D-----------------------|
A-----------------------|
E-----------------------|
B-0H2-0H2-0H2-0H2-3p2p0-|

Riff 4
G----------------------------------------|
D----------------------------------------|
A----------------------------------------|
E----------------------------------------|
B-2-2-2-2-2--0-2-2-2--2-2-2-2-2--0-2-2-2-|

Riff 2
G----------------------|
D----------------------|
A----------------------|
E----------------------|
B-5-5-5-0--5-5-5-0-----|

Riff 5
G-----------------------------------------------------|
D-----------------------------------------------------|
A-----------------------------------------------------|
E-----------3*-------------------------3*-------------|
B-2--2-2-2-----2--2-2-2--3*--2--2-2-2-----2--2-2-2-3*-|

Riff 6
G--------------------|
D--------------------|
A--------------------|
E--------------------|
B-2--0-0-5-0-0-5-4-2-|

Riff 7
G---------------------------|
D---------------------------|
A---------------------------|
E---------------------------|
B-7-7-7-7-8-7-10-5--5-5-5-5-|

H=Hammer On
P=Pull Off
*=Pinched Harmonic


Enviada por Sem inscrição
Nº de acordes: