Simple Plan

Shut Up

Simple Plan

252 exibições
INTRO 
G------------------------------------     
D------------------------------------ X2  
A-4-44444444444----------------------     
E---------------2222222222222-4-4---

VERSE (there you go...)
G-------------------------
D------------------------- X2
A-4444--------------------
E------2222-4444-2222--44-

PRE-CHORUS (it seems like everyday...)
G---------------------------
D---------------------------
A-------------4-------------
E-66-44-22-44---66-44-222let ring

CHORUS (so shut up shut up shut up...)
G--------------------------
D-------------------------- X2
A-44444444-----------------
E----------44-66666666-2-4-

INTRO INTO VERSE
G------------------------------------ 
D------------------------------------ X2
A-4-44444444444----------------------
E---------------2222222222222-4-4----


VERSE (there you go...)
G-------------------------
D------------------------- X2
A-4444--------------------
E------2222-4444-2222--44-

PRE-CHORUS (you\'re always there to...)
G---------------------------
D---------------------------
A-------------4-------------
E-66-44-22-44---66-44-222(let ring)

CHORUS (so shut up shut up...)
G--------------------------
D-------------------------- X2
A-44444444-----------------
E----------44-66666666-2-4-

INTRO
G------------------------------------ 
D------------------------------------ X2
A-4-44444444444----------------------
E---------------2222222222222-4-4----

BRIDGE (dont tell me who i should be...)
G----------------------------      
D—--------------------------- X4 
A-PAUSE-4--------------------    
E-----------44-----2----44---      

INTRO TO CHORUS(i dont wanna waste my time...)
G------------------------------
D------------------------------
A---44-------------------------
E----------44----2222222222222-


CHORUS 2 BEGINNING (so shut up shut up shut up... during pause.)
G--------------------------
D-------------------------- 
A--PAUSE-------------------
E----------44-66666666-2-4-

GO INTO CHORUS NOW                                                           
G----------------------------------------------------------------------------------
D----------------------------------------------------------------------------------
A-44444444---------------444—4-44----------------444---4-44------------------44—44-
E----------44-66666666--------------666---6-66---------------666---6-66------------



Enviada por Sem inscrição
Nº de acordes: