Restart

Recomeçar

Restart

2.550 exibições
(intro 2x)
|-----------------------------------------------------------------------|
|-----------------------------------------------------------------------|
|--------3-3------------------------------------------------------------|
|--1-1---------3-3---5-5---3-3------------------------------------------|

(continua com a intro até - \"E hoje sei...\"

|---------------------------------------------------------------------------------|
|---------------------------------------------------------------------------------|
|----------------------------------3-3-3------------------------------------------|
|111111111111111---5-5-5---1-1-1-----------3-3-3----------------------------------|

|-----------------------------------------------------------------|
|-----------------------------------------------------------------|
|------------------3-3-3------------------------------------------|
|--5-5-5---1-1-1-----------3-3-3----------------------------------|(2x)

|----------------------------------------------------------------|
|----------------------------------------------------------------|
|------------------33333333--------------------------------------|
|--5-5-5---1-1-1-------------33333333----------------------------|

(repete tudo)


Enviada por marcelo12
Nº de acordes: