Red Hot Chili Peppers

Californication

Red Hot Chili Peppers

20.543 exibições
Levada 1
G------9--7h9h7------6-6----------9--7h9h7------10-10-6- 
D-7-7-----------10-------10--7-7-----------10----------- 
A------------------8--------------------------8--------- 
E------------------------------------------------------- 

Refrão 1
G----------------------------------------------------------- 
D----------------------------------------------------------- 
A-3-3-3-3-----------------5-5-5-5-3-3-3-3-----------------5- 
E---------3-3-3-3-1-1-1-1-----------------3-3-3-3-1-1-1-1--- 

Levada 2 (Base na escala menor de A, na hora do F na casa 8 pode-se
fazer a volta na escala menor até o A denovo).

G---------------------- 
D---------------------- 
A-----------------/8-8- 
E-5--5--5-7-8-1-1------ 

Refrão 2
G---------------------------------------------------------------- 
D---------------------------------------------------------------- 
A-3-3-3-3---------5-5-5-5---------3-3-3-3---------5-5-5-5-5-5-5-5 
E---------3-3-3-3---------5-5-5-5---------3-3-3-3---------------- 

Solo 1
G----11----11------------- 
D----------------12----12- 
A-/9----9----------------- 
E-------------10----10---- 

Solo 2
G-----------7-----------9- 
D-----9---7-------7---9--- 
A---9---5-------7---7----- 
E-7-----------5----------- 

Estrutura da musica:
Levada 1: 3x
Refrão 1
Levada 1: 2x
Refrão 1
Levada 2: 6x
Refrão 2
Levada 1: 2x
Refrão 1
Levada 1: 3x
Refrão 1
Levada 2: 6x
Refrão 2: 2x
Solo 1
Solo 2
Solo 1
Solo 2: 3x
Levada 1: 2x
Refrão 1
Levada 2: 6x
Refrão 2: 2x


Enviada por Sem inscrição
Correção por equipepegacifras
Nº de acordes: