Raimundos

A Mais Pedida

Raimundos

2.986 exibições
Intro:(3x)
G:-----------------------------|
D:-----------------------------|
A:--3--3-3--------2--2-2--2-2--|
E:---------3--3-3--------------|

Introb:(3x)
G:-------------------------------| |---|
D:-------------------------------| |---|
A:--3--3-3-----------------------| |-5-|
E:---------3-3--5--5-5-5-5-5-5---| |---|

Riff1:
G:---------------------------------------------------------------------|
D:---------------------------------------------------------------------|
A:--3-3-3-3-3-3-3--------------5-5-5-5-5-5---------------------------3-|
E:-----------------1-1-1-1-1-1-------------5-5-5-5-5-5-5-5-5-5--3-3----|
    |--3 vezes--|
   "Nesse show não entra menor,
    Um homem censurou, tava de mau humor
    Não tinha dormido bem porque não levantou." 
G:-------------------------------------------------------------------------|
D:-------------------------------------------------------------------------|
A:--3-3-3-3-3-3-3----------------------------------------------3-3-3-3-3-3-|
E:------------------1-1-1-1-1-1-1-1-1-1--5-5-5-5-5-5--3-3-3-3--------------|
    |--3 vezes--|
   "Pense como ia ser bom
    Se nós fizesse um som que ultrapassasse
    A barreira das AM, FM e dos elevador
    Aí sim, dá um selinho." 
G:---------------------------------------------------------------------|
D:---------------------------------------------------------------------|
A:--5-5-5-5-5-5--8-8-8-8-8-8--5-5-5-5-5-5-5-5-5-5----------------------|
E:-------------------------------------------------3-3-3-3-3-3-3-3-3-3-|
    "E mostra o seio that you saw
     Quando eu te vi o meu calção se abriu
     Caiu uma lágrima de um olho, que se for dos dois então é namoro."

Refrão:(2X)
G:--------------------------------------------------------------------------------------|
D:--------------------------------------------------------------------------------------|
A:--3-3-3-3-3-3-3---------------3-3-3-3-3-3-3---------------5-5-5-5-5-5-5---------------|
E:----------------1-1-1-1-1-1-1---------------1-1-1-1-1-1-1---------------3-3-3-3-3-3-3-|
   "Meu cabelo é ruim, mas meu terno é de linho
    Vou ser seu salgadinho, cê vai gostar de mim
    Se eu tocar no seu radinho
    Choro até o fim, só pra rimar com inho
    Pois se eu ganhar "din din" cê vai gostar de mim
    e eu tocar no seu radinho."

Repete Introb(3x)

Riff2:
G:----------------------------------------------------------------|
D:----------------------------------------------------------------|
A:--3-3-3-3-3-3-3-3-------------------------------3-3---------3-3-|
E:-------------------1-1-1-1-1-1-1-1-1-1--5-5-3-3-----5-5-3-3-----|
   |----3 vezes----|
   "Por favor, seu locutor,
    Ao menos uma vez, melhor se fossem três
    Toca o nosso som aí que tu me faz feliz." 
G:-----------------------------------------------|
D:-----------------------------------------------|
A:--5-5-5-5-5-5-5-5-5-5----------3-3---------3-3-|
E:-----------------------5-5-3-3-----5-5-3-3-----|
 "Se não tocar eu quebro o seu nariz." 
G:-----------------------|
D:-----------------------|
A:--5-5-5-5-5-5-5-5-5-5--|
E:-----------------------|
"Se não tocar eu quebro o seu nariz." 

Base do Solo:
G:-----------------------------------------------------------------------------|
D:-----------------------------------------------------------------------------|
A:-3-3-3-3-3-3-3--5-5-5-5-5-5-5--8-8-8-8-8-8-8---------------------------------|
E:----------------------------------------------5-5-5-5-5-5-5--3-3-3-3-3-3-3-3-|

G:-----------------------------------------------------------------------------|
D:-----------------------------------------------------------------------------|
A:-3-3-3-3-3-3-3--5-5-5-5-5-5-5--8-8-8-8-8-8-8---------------------------------|
E:----------------------------------------------5-5-5-5-5-5-5--3-3-3-3-3-3-3-3-|
    										   |----2 vezes----|
Repete Refrão

Riff3:(2x)
G:------------------------------|
D:------------------------------|
A:--3-3-3-3-3-3-3---------------|
E:----------------1-1-1-1-1-1-1-|
    Chame, chame, musica chame now... 
    Chame, chame, musica chame now... 
G:--------|
D:--------|
A:--5-----|
E:-----3--|
 "Só assim preu tocar no seu radinho."
 
Repete Intro(3x)
 
 


Enviada por Sem inscrição
Nº de acordes: