Pitty

Teto De Vidro

Pitty

1.955 exibições
Intro e refrão
G|-------------------------------|
D|-------------------------------|
A|4-4-4-3-4-3-4-3-4--0-0-0--2-2-2|
E|-------------------------------|

1ª parte do verso
G|-------------------|
D|-------------------|
A|4-4-------------0-0|
E|-------------------|

2ª parte do verso
G|------------------------------------------|----------------------------4-------5-|
D|---2~~---4~~--5~~---4-2-4--1---------/6b~~|--2~~---4~~---5~--4-2-4---4---4---4---|
A|-------------------------------3-3-3------|------------------------2-------3-----|
E|------------------------------------------|--------------------------------------|
  E aí, tantas pessoas querendo sentir,     | É bom assim, se movimenta está vivo, 
  Sangue correndo na veia                   | Ouvi milhões de vozes gritando..
Pré refrão
G|----------------------------------|--------------------------------|
D|----------------------------------|--------------------------------|
A|4-4-4-4--2-2-2-2--0-0-0-0--2-2-2-0-2|4-4-4-4--2-2-2-2----------------|
E|----------------------------------|-----------------2-2-2-2-4-4-4-4|
  Eu quero ver quem é capaz         |de fechar os olhos e descansar em...

G|-----------------|-------------|
D|-----------------|-------------|
A|44-4-4--000000000|44-4-4--00-00|
E|-----------------|-------------|
  paaaaaazzzzzzzzz...............
  na segunda vez repete este trecho 2x

Última frase do último refrão
G|-------------------------------|
D|-------------------------------|
A|4-4-4-3-4-3-4-3-4--0-0-0-/6-5-4|
E|-------------------------------|

última parte
G|-----------------------------------|
D|-----------------------------------|
A|44444444----------22222222-00000000|
E|---------00000000------------------|

 
 _______________________________________________________
Contribuição: Leone César Milagres(leo.omestre@bol.com.br)


Enviada por Sem inscrição
Nº de acordes: