Pitty

Máscara

Pitty

3.169 exibições
MASCARA

TOM: D
4/4 
AS DIVISÕES SÃO UM COMPASSO EM 4/4
AFINAR CORDA E EM D

INTRO
D-0--0--0-3-6-5-3|-0--0--0-6-6-6-6|-0--0--0-3-6-5-3|-0--0--0-1-1-1-1|
A----------------|----------------|----------------|----------------|
D----------------|----------------|----------------|----------------|
G----------------|----------------|----------------|----------------|

D-0--0--0-3-6-5-3|-0--0--0-6-6-6-6|-0--0--0-3-6-5-3|-0--0--0-1-1----|
A----------------|----------------|----------------|----------------|
D----------------|----------------|----------------|----------------|
G----------------|----------------|----------------|----------------|

LEVADA 1: ATÉ "NINGUÉM MERECE...." 
(IGUAL A INTRO SÓ QUE A ULTIMA NOTA NÃO PARA) 

"NINGUÉM MERECE..."
D-0~~~~~~~~~~~1-0|----------------|
A----------------|----------------| (4X)
D----------------|----------------|
G----------------|----------------|

"O IMPORTANTE É SER VOCÊ..."
D-0-0-0-0-0-0-0-0|-3-3-3-3-3-3-3-3|-5-5-5-5-5-5-5-5|-8-8-8-8-8-8-8-8|
A----------------|----------------|----------------|----------------| (2X) 
D----------------|----------------|----------------|----------------|
G----------------|----------------|----------------|----------------|

INTRO

LEVADA 1

"NINGUEM MERECE..." (4X)

"O IMPORTANTE É SER VOCÊ" (2X)


LEVADA 2
D-6-5-3-0-6-5-3-0|
A----------------|(13X)
D----------------|
G----------------|

PARTE EM INGLES, SEM BAIXO!

LEVADA 1

"O IMPORTANTE É SER VOCÊ" (4X)
OBS: NA ULTIMA VEZ ELE CORTA O ULTIMO COMPASSO

LEVADA 2 (1X)


Enviada por Sem inscrição
Nº de acordes: