Pitty

Equalize

Pitty

2.432 exibições
G|-------|
D|-------| x1
A|-5~~---|
E|-------|

G|--------------12------------------------12-------------------12-------7--|
D|-----------12----14------------------12----14-------------12----14-------|
A|-----12h14-----------12h14-----12h14----------------12h14----------------| x1
E|-12------------------------12-------------------12-----------------------|


Verso

G|-7--6--4----------------------------------|
D|----------4----4-2----2---2-4-------------|
A|------------2-------2----2-----2h4-----5--| x1
E|-----------------------------------2------|

G|----------------------------------------------------|
D|------------2h4-------2------------4----------------|
A|-0-5--4--2-----2---------------2h4------------------| x1
E|-------------------0----0---2--------3-3-3-3-5-5-5--|

G|--------------12-------------------------------------12--------------------------|
D|-----------12----14-------------12h14-------------12----14---------12------------|
A|-----12h14----------------12h14-------------12h14---------------12-----12-14-12--| x1
E|-12-------------------12----------------12------------------10-------------------|

G|--------------12-------------------------------------12------------------------------|
D|-----------12----14-------------12h14-------------12----14---------------------------|
A|-----12h14----------------12h14-------------12h14-----------10-10-10-10-12-12-12-12--| x1 
E|-12-------------------12----------------12-------------------------------------------|


Pré-Refrão

G|-----------------------------------------------------------------------------|
D|-----------------------------------------------------------------------------|
A|-14-14-14-141414-14-14-14-12-12-12-121212-12-12-12---------------------------| x1
E|---------------------------------------------------13-13-13-131313-13-13-13--|

G|-------------------------------------------------------|
D|-/15-15-15-15-15-15-15-15-15-15-15-15-15-15-15-15-15\--|
A|-------------------------------------------------------| x1
E|-------------------------------------------------------|


Refrão

G|------------------------------------------------------------|
D|------------------------------------------------------------|
A|-5-5-55-52-2-2-5-5-55-52-2-2-5-5-55-52-2-2------------------| x2
E|-------------------------------------------5-5-5-5-3-3-3-3--|

G|-------------------------7------|
D|-----------------7-7-7h9---0----|
A|---------5-5-7/9----------------| x1
E|-3-3-5/7------------------------|


Verso

G|-7--6--4---------------------------------|
D|---------2h4-----2----2--2h4-------------|
A|-------------2------2---------2h4-----5--| x1
E|----------------------------------2------|

G|----------------------------------------------------|
D|------------2h4-----2----2--2h4-4-4--5-5-5-5-7-7-7--|
A|-0-5--4--2------2------2----------------------------| x1
E|----------------------------------------------------|

G|---16--14---------------------12-----------------------------------|
D|-----14--14----------------12----14--------12-14-12----12----------|
A|-----------12h14-----12h14------------12h14---------14------12h14--| x1
E|-----------------12------------------------------------------------|

G|-------------------------------12----------------------------------------------|
D|--------12h14------------12h14----14-12h14--12141214---------------------------|
A|-----14--------14-----14------------------------------10-10-10-10-12-12-12-12--| x1
E|-12---------------12-----------------------------------------------------------|


Bridge

G|-----------------------------------|
D|-----------------------------------|
A|-7-7-7--7-77-7-7-5-5-5-05-5505-50--| x2
E|-------7----7---7------------------|



Pré-Refão

G|-------------------------------------------------------------------------------|
D|-------------------------------------------------------------------------------|
A|-2-2-2-222-2-2-2-0-0-0-000-0-0-0-----------------/10101010101010101010101010\--| x1
E|---------------------------------3-3-3-333-3-3-3-------------------------------|

G|-------------------------------------------------------|
D|-------------------------------------------------------|
A|-/10-10-10-10-10-10-10-10-10-10-10-10-10-10-10-10-10\--| x1
E|-------------------------------------------------------|


Refrão

G|------------------------------------------------------------|
D|------------------------------------------------------------|
A|-5-5-55-52-2-2-5-5-55-52-2-2-5-5-55-52-2-2------------------| x4
E|-------------------------------------------5-5-5-5-3-3-3-3--|

G|-------------------------7--|
D|-----------------7-7-7h9----|
A|---------5-5-7/9------------| x2
E|-3-3-5/7--------------------|

G|-------------------------7--/11-|
D|-----------------7-7-7h9-----0--| x1
A|---------5-5-7/9----------------|
E|-3-3-5/7------------------------|


_______________________________________________________
Contribuição: Eduardo Soares Nunes(cromomero@hotmail.com)
Correção: Leandro Izaias(lnd_dh@hotmail.com)


Enviada por Sem inscrição
Nº de acordes: