Pink

Funhouse

Pink

74 exibições
Intro/Verse

G|-------------------------------------------------------------------------|
D|-------------------------------------------------------------------------|
A|-----2--3--2p0h2--0--0--2--0---------------------------------------------|
E|--0----------------------------3p2---------------------------------------|

Bridge

G|-------------------------------------------------------------------------|
D|-------------------------------------------------------------------------|
A|------------------2-2-2-2-3-3-3-3----------------------------------------|
E|--3-3-3-3-2-2-2-2--------------------------------------------------------|

Chorus

G|-------------------------------------------------------------------------|
D|-------------------------------------------------------------------------|
A|------------3-3--5-555---------------------------------------------------|
E|--0-0-0-000--------------------------------------------------------------|

Run Down

G|-------------------------------------------------------------------------|
D|-------------------------------------------------------------------------|
A|------7-7--6-6--5-5--4-4--3-3--2-2--0-0----------------------------------|
E|--0-0--------------------------------------------------------------------|

The run down ends on the G then to the B. There is a little pop fill after the run down 
Pink is singing the bass run
Run down End                        Pop fill
G|-------------------------------------------------------------------------|
D|------------------------------------------0h2----------------------------|
A|----2--------------------------------------------------------------------|
E|--3----------------------------------------------------------------------|

Here is the song layout

Verse X4
Bridge X2
Chorus X4
Verse X4
Bridge X2
Chorus X8
Verse X2
Run Down X4 Then run down end
Pop fill
Verse X2
Chorus X8


Enviada por Sem inscrição
Nº de acordes: