Paramore

Decode

Paramore

1.773 exibições
Drop D

Verse
|-----------------------------|
|-----------------------------|
|-----------------------------|
|-4(x16)-1(x16)-8(x16)-3(x16)-|

Pre-Chorus
|---------------------|
|---------------------|
|---------------------|
|-4~--1~--8~--3(x16)--|

Chorus: (These are 1's not 11's)
|-------------------------------------|
|-------------------------------------|
|-----------33-4-4--------------------|
|-444444444--------4-1111111111111111-|

|-----------------------------------|
|-----------------------------------|
|-----------------------------------|
|-8888888888888888-3333333333333333-|

|-------------------------------------|
|-------------------------------------|
|-----------33-4-4--------------------|
|-444444444--------4-1111111111111111-|

|-----------------------------------------|
|-----------------------------------------|
|-----------------------------------------|
|-8888888888888888-3333333333333-silence~-|

Post-Chorus:
|----------------------|
|----------------------|
|----------------------|
|-8~---11/6~-------1-3-|

Verse
|-----------------------------|
|-----------------------------|
|-----------------------------|
|-4(x16)-1(x16)-8(x16)-3(x16)-|

Pre-Chorus
|---------------------|
|---------------------|
|---------------------|
|-4~--1~--8~--3(x16)--|

Chorus: Play this twice
(These are 1's not 11's)
|-------------------------------------|
|-------------------------------------|
|-----------33-4-4--------------------|
|-444444444--------4-1111111111111111-|

|-----------------------------------|
|-----------------------------------|
|-----------------------------------|
|-8888888888888888-3333333333333333-|



Solo: Play this twice
These are 1's not 11's
|---------------------------------|
|---------------------------------|
|---------------------------------|
|-44-444-444-44-4-11-111-111-11-1-|

|---------------------------------|
|---------------------------------|
|---------------------------------|
|-88-888-888-88-8-33-333-333-33-3-|

Bridge:
|------------------------|
|------------------------|
|------------------------|
|-4~----1~----8~----3----|

|-------------------------|
|-------------------------|
|-------------------------|
|-4~--11/1~----8~----3----|

Last Chorus: Play this three times
|-------------------------------------|
|-------------------------------------|
|-----------33-4-4--------------------|
|-444444444--------4-1111111111111111-|

|-----------------------------------|
|-----------------------------------|
|-----------------------------------|
|-8888888888888888-3333333333333333-|

in the third time the last part is

|-----------------------------------|
|-----------------------------------|
|-----------------------------------|
|-8888888888888888-3333333333333/0--|

Outro:
|-----------------------|
|-----------------------|
|-----------------------| x4
|-4--6--1--8-3-4-8-3--6-|

on the forth time don't play the G# note
then

|--------|
|--------|
|--------|
|-1-1-1~-|


Enviada por romeu
Nº de acordes: