intro: 
|-----------------------|------------------------| 
|-----------------------|------------------------| 
|-33-320----------222-02|-33-320----------222-02-| 
|--------33-32-00-------|--------33-32-00--------| 
 
(Riff 1)
Eu sei... 
|---------------| 
|---------------| 
|-333-------555-| 
|----333-000----| 
 
(Riff 2) 
Vou pedir... 
|-----------------|----------------/7-| 
|-----------------|---------------5---| 
|-777-222-333-----|-777-222-333-55----| 
|-------------333-|-------------------| 
 
You Say... 
|---------------------------------| 
|---------------------------12/12-| 
|-333----333---333-------555------| 
|-----333---333---333-000---------| 




Enviada por Sem inscrição
Nº de acordes: