INTRO E REFRÃO:
G ---------4-2---------------------|-------
D -------2-----0----0--------------|-------
A -0-2-4--------------4-2----------|-0-5--- 
E ---------------------------------|-------
                               
Ou

G ---------------------------------|-------
D ---------9-7---------------------|-------
A -0-2-4-7-----5----5-4-2----------|-0-5--- 
E ---------------------------------|-------
                                              
   VERSO:
G -----------------------------------------------
D -----------------------------------------------
A --0--0--0---0--0-0--2-3-4--4--4---4--4--4-4-2--
E -----------------------------------------------
                                                                   
G ----------------------------------------------------
D ----------------------------------------------------
A --5--5--5---5--5---5-5-0---5--5--5---5--5-5--4--2---
E ----------------------------------------------------
                                                                              
   PRÉ-REFRÃO:
G -----------------------------------------
D --------------------2-3-4--2-------------
A --4--4--4---4--4-4-----------4-2---0-2---
E ---------------------------------2-------

G --------------------------------------------------
D --------------------------------------------------
A --5--5--5---5--5---5-5-0---5--5--5---5--5-5--4--2-
E --------------------------------------------------


Enviada por tinho
Nº de acordes: