~ Let ring
> Strum
INTRO                                                                         x1
G-------------------------------------------------------------------------------
D-------------------------------------------------------------------------------
A--------3~-----------------------6~--------------------------------------------
E-1~--------------3~---------------------------6~----------1~-------------------

Just Guitar for a bit

INTRO LEAD                                                                    x2    
G-------------------------------------------------------------------------------
D-------------------------------------------------------------------------------
A---------------------3>----------6>----------------------------6>--------------
E-6>--------1>------------------------------3>-------1>-------------------------

VERSE                                                                         x1
G-------------------------------------------------------------------------------
D-------------------------------------------------------------------------------
A---------------------3>-----------6>---------------------------6>--------------
E-6>--------1>------------------------------3>-------1>-------------------------

PRE - CHORUS                                                                  x1
G-------------------------------------------------------------------------------
D-------------------------------------------------------------------------------
A-----3>--------------6>--------------------------------------------------------
E-------------------------------------------------------------------------------

CHORUS                                                                        x1
G-------------------------------------------------------------------------------
D-------------------------------------------------------------------------------
A--------------------------------------------------6>---------------------------
E-6>--------5>----------3>----------1>-------------------------6~---------------
CHORUS PART 2                       First Time                Last Time       x2
G--------------------------------/---------------------/------------------------
D--------------------------------/---------------------/------------------------
A-----------3>-------------------/----------------6>---/-----------6------------
E-6>--------------------3>-------/--1>-----------------/---1---------------6~---

Intro Lead     x1
Verse          x2
Pre - Chorus   x1
Chorus         x1
Chorus part 2  x2

BRIDGE                                                                        x1
G-------------------------------------------------------------------------------
D-------------------------------------------------------------------------------
A----------3~---------------------------------------3~--------------------------
E-6~-----------------3~--------1~---------6~------------------3~---------1>-----

LAST PART                                                                     x3
G-------------------------------------------------------------------------------
D-------------------------------------------------------------------------------
A----------3>-------------------------------------------------------------------
E-6>----------------3>-------1>-------------------------------------------------

OUTRO                                                                         x1
G-------------------------------------------------------------------------------
D-------------------------------------------------------------------------------
A----------3>-----------------------------6-------------------------------------
E-6>----------------3>-------1-----------------------6~-------------------------


Enviada por Sem inscrição
Nº de acordes: