Oficina G3

O Caminho

Oficina G3

1.706 exibições
Intro

E|---------|----------|---------|-------------|
A|-5-------|-5--------|-5-------|-5--8-8-5----|
D|---------|---5-4-3--|---------|-------------|
G|--7-6-5--|----------|--7-6-5--|-------------|   2X

riff 1

E|--------------------------------3-----------|
A|-5-5--0--3----3---5-5--0--1--1-1---1--3-----|
D|------------3-------------------------------|
G|----------3---------------------------------|   2X


Preciso viver, preciso mudar...
riff 2

E|----------------5--3--1-1-|----------------5-3-1-3-1-|
A|-5-5--3-5-3-5-3-----------|-5-5--3-5-3-5-3-----------|
D|--------------------------|--------------------------|
G|--------------------------|--------------------------|  2X

Ouvi sobre um DEUS q mandou seu filho...  
riff 3

E|-0-1--333333-0--1-111111--0-1-333333--0-1--555555-|
A|--------------------------------------------------|
D|--------------------------------------------------|
G|--------------------------------------------------|     2X


riff 1  Deeeus, me mostre o caminho 
        Deeeus, não me deixe andar sozinho.

riff 2  Agora consigo viver,
        consigo pensar...

riff 3  ouvi sobre um DEUS
        Que mandou seu filho.



_______________________________________________________
Contribuição: Elias Rodrigues(bassman8910@ibest.com.br)


Enviada por Sem inscrição
Nº de acordes: