Oficina G3

Novos Céus

Oficina G3

1.874 exibições
durante a música e no começo do solo Duca faz os seguintes riff's:

riff 1 

G   ------------------
D   ---2-4---4-2------
A   -2-----2-----2-4--
E   ------------------

riff 2

G   --------6-8-9-8-6/8/6---------
D   -----6----------------9-6-7---
A   -4-7------------------------0-
E   ------------------------------


solo

G   -4-6/8-6-4---------
D   -----------6-4-6---
A   -----------------7-
E   -------------------

G   -------------11/13-
D   ------9-11-9-------
A   -9-11--------------
E   -------------------

G   -11-13-------------
D   -------11---9/11/9-
A   ----------9--------
E   -------------------

_______________________________________________________
Contribuição: Leonardo Melo(ludileo@terra.com.br)


Enviada por Sem inscrição
Nº de acordes: