Oficina G3

Espelhos Mágicos

Oficina G3

5.984 exibições
 base é praticamente toda abafada

G||---------------------------|----------------------------|
D||*----------7/9-7----7------|----------------------------|
A||*--------------------------|--0-----------7----9-7------|
E||---7-7-7-7-----------------|---------3------10-----10-9-|


                                                       
--------------------------|--------------------------||
----------7/9-7----7------|-----0--------2----------*||
--------------------------|--------2--------4-------*||
--7-7-7-7-----------------|--3--------3--------5-----||


                                                           
------------------------------|---------------------------|
------------------------------|---------------------------|
--2--2-2-2--2-2-2--2-2-2--2-2-|--2--2-2-2--2-2-2--0----0--|
------------------------------|---------------------------|


                                                       
----------------------------|-------------------------|
----------------------------|-------------------------|
----2--2--2-2-2--2-2-2--2-2-|--------5-------------0--|
----------------------------|--5--3-----3--0---2------|


                                                                               
---------------------------|----------------------|---------------------------|
---------------------------|----------------------|---------------------------|
--2--2--2--2--2--2--2--2-2-|--0-------------------|--2--2--2--2--2--2--2--2-2-|
---------------------------|---------3------3--5--|---------------------------|


                                                                        
--------------------|---------------------------|----------------------|
--------------------|---------------------------|----------------------|
---------0----------|--2--2--2--2--2--2--2--2-2-|--0-------------------|
--3-----------------|---------------------------|---------3------3--5--|


                                                       
---------------------------|--------------------------|
---------------------------|--------------------------|
--2--2--2--2--2--2--2--2-2-|---------0----5-4-2-------|
---------------------------|--3-----------------5-3-2-|


                                                              
------------------------------|------------------------------|
------------------------------|------------------------------|
------------------------------|------------------------------|
--0--0-0-0--0-0-0--0-0-0--0-0-|--2--2-2-2--2-2-2--2-2-2--2-2-|


                                                            
------------------------------|----------------------------|
------------------------------|----------------------------|
------------------------------|--0--0-0-0--0-0-0--2--------|
--3--3-3-3--3-3-3--3-3-3--3-3-|----------------------3--5--|


                                                              
------------------------------|------------------------------|
------------------------------|------------------------------|
------------------------------|------------------------------|
--0--0-0-0--0-0-0--0-0-0--0-0-|--2--2-2-2--2-2-2--2-2-2--2-2-|


                                                            
------------------------------|----------------------------|
------------------------------|----------------------------|
------------------------------|--0--0-0-0--0-0-5--4--3-----|
--3--3-3-3--3-3-3--3-3-3--3-3-|-------------------------5--|


                                                                 
----------------------|------------------|----------------------|
----------------------|------------------|----------------------|
--2----2--2--2--------|------------------|----------------------|
----------------------|------------------|--3----3--3--3--------|


                                                                    
----------------------|----------------------|---------------------|
----------------------|----------------------|---------------------|
--0----0--0--0--------|----------------------|---------------------|
----------------------|--2----2--2--2--------|--3--------0----2----|


                                                                         
----------------------|----------------------|--------------------------|
----------------------|----------------------|--------------------------|
----------------------|--0----0--0--0--------|--2--2--2--2--2--2--2--2--|
--3----3--3--3--------|----------------------|--------------------------|


                                                                          
--------------------------|----------------------|-----------------------|
--------------------------|----------------------|-----------------------|
--2--2--2--2--2--2--2--2--|----------------------|--0--0--0--0--0--------|
--------------------------|--3----3--3--3--------|-----------------------|


                                                                               
---------------------------|----------------------|---------------------------|
---------------------------|----------------------|---------------------------|
--2--2--2--2--2--2--2--2-2-|--0-------------------|--2--2--2--2--2--2--2--2-2-|
---------------------------|---------3------3--5--|---------------------------|


                                                                               
--------------------|--------------------------|------------------------------|
--------------------|--------------------------|------------------------------|
---------0----------|-------0------5-4-2-------|------------------------------|
--3-----------------|--3-----------------5-3-2-|--0--0-0-0--0-0-0--0-0-0--0-0-|


                                                              
------------------------------|------------------------------|
------------------------------|------------------------------|
------------------------------|------------------------------|
--2--2-2-2--2-2-2--2-2-2--2-2-|--3--3-3-3--3-3-3--3-3-3--3-3-|


                                                            
----------------------------|------------------------------|
----------------------------|------------------------------|
--0--0-0-0--0-0-0--2--------|------------------------------|
----------------------3--5--|--0--0-0-0--0-0-0--0-0-0--0-0-|


                                                              
------------------------------|------------------------------|
------------------------------|------------------------------|
------------------------------|------------------------------|
--2--2-2-2--2-2-2--2-2-2--2-2-|--3--3-3-3--3-3-3--3-3-3--3-3-|


                                                                             
----------------------------|----------------------------|------------------|
----------------------------|----------------------------|------------------|
--0--0-0-0--0-0-0--2--3-----|--0--0-0-0--0-0-5--4--2-----|------------------|
-------------------------5--|-------------------------5--|------------------|


                                                                     
----------------------|----------------------|----------------------|
----------------------|----------------------|----------------------|
----------------------|--0----0--0--0--------|----------------------|
--3----3--3--3--------|----------------------|--2----2--2--2--------|


                                                                    
---------------------|----------------------|----------------------|
---------------------|----------------------|----------------------|
---------------------|----------------------|--0----0--0--0--------|
--3--------0----2----|--3----3--3--3--------|----------------------|


                                                                             
--------------------------|--------------------------|----------------------|
--------------------------|--------------------------|----------------------|
--2--2--2--2--2--2--2--2--|--2--2--2--2--2--2--2--2--|----------------------|
--------------------------|--------------------------|--3----3--3--3--------|


                                                                    
----------------------|----------------------|---------------------|
----------------------|----------------------|---------------------|
--0----0--0--0--------|----------------------|---------------------|
----------------------|--2----2--2--2--------|--3--------0----2----|


                                                                         
----------------------|----------------------|--------------------------|
----------------------|----------------------|--------------------------|
----------------------|--0----0--0--0--------|--2--2--2--2--2--2--2--2--|
--3----3--3--3--------|----------------------|--------------------------|


                                                      
--------------------------|--------------------------|
--------------------------|--------------------------|
--2--2--2--2--2--2--2--2--|--------------------------|
--------------------------|--3--3--3--3--3--3--3--3--|


                                                                         
--------------------------|----------------------|----------------------|
--------------------------|----------------------|----------------------|
--------------------------|----------------------|----------------------|
--3--3--3--3--3--3--3--3--|----3----3----3----3--|----3----3----3----3--|


                                                                           
------------------------|------------------------|------------------------|
------------------------|------------------------|------------------------|
------------------------|------------------------|--2----2--2--2----2--2--|
--2----2--2--2----2--2--|--2----2--2--2----2--2--|------------------------|


                                                               
-------------------|----------------------|-------------------|
-------------------|----------------------|-------------------|
--0----------------|----------------------|-------------------|
-------------------|--3----3--3--3--------|--3----------------|


                                                                  
-------------------|------------------|--------------------------|
-------------------|------------------|--------------------------|
--0----------------|------------------|--------------------------|
-------------------|------------------|--3--3--3--3--3--3--3--3--|


                                                                             
--------------------------|----------------------|--------------------------|
--------------------------|----------------------|--------------------------|
--------------------------|----------------------|--------------------------|
--5--5--5--5--5--5--5--5--|--2----2--2--2--------|--3--3--3--3--3--3--3--3--|


                                                      
--------------------------|--------------------------|
--------------------------|--------------------------|
--------------------------|--------------------------|
--3--3--3--3--3--3--3--3--|--5--5--5--5--5--5--5--5--|


                                                      
--------------------------|--------------------------|
--------------------------|--------------------------|
--2--2--2--2--2--2--2--2--|--2--2--2--2--2--2--2--2--|
--------------------------|--------------------------|


                                                                             
--------------------------|--------------------------|----------------------|
--------------------------|--------------------------|----------------------|
--------------------------|--------------------------|----------------------|
--3--3--3--3--3--3--3--3--|--5--5--5--5--5--5--5--5--|--2----2--2--2--------|


                                                      
--------------------------|--------------------------|
--------------------------|--------------------------|
--------------------------|--------------------------|
--3--3--3--3--3--3--3--3--|--3--3--3--3--3--3--3--3--|


                                                      
--------------------------|--------------------------|
--------------------------|--------------------------|
--------------------------|--2--2--2--2--2--2--2--2--|
--5--5--5--5--5--5--5--5--|--------------------------|


                                                      
--------------------------|--------------------------|
--------------------------|--------------------------|
--2--2--2--2--2--2--2--2--|--------------------------|
--------------------------|--3--3--3--3--3--3--3--3--|


                                                                             
--------------------------|----------------------|--------------------------|
--------------------------|----------------------|--------------------------|
--------------------------|----------------------|--------------------------|
--5--5--5--5--5--5--5--5--|--2----2--2--2--------|--3--3--3--3--3--3--3--3--|


                                                      
--------------------------|--------------------------|
--------------------------|--------------------------|
--------------------------|--------------------------|
--3--3--3--3--3--3--3--3--|--5--5--5--5--5--5--5--5--|


                                                      
--------------------------|--------------------------|
--------------------------|--------------------------|
--2--2--2--2--2--2--2--2--|--2--2--2--2--2--2--2--2--|
--------------------------|--------------------------|


                                                                             
--------------------------|--------------------------|----------------------|
--------------------------|--------------------------|----------------------|
--------------------------|--------------------------|----------------------|
--3--3--3--3--3--3--3--3--|--5--5--5--5--5--5--5--5--|--2----2--2--2--------|


                                                      
--------------------------|--------------------------|
--------------------------|--------------------------|
--------------------------|--------------------------|
--3--3--3--3--3--3--3--3--|--3--3--3--3--3--3--3--3--|


                                                      
--------------------------|--------------------------|
--------------------------|--------------------------|
--------------------------|--2--2--2--2--2--2--2--2--|
--5--5--5--5--5--5--5--5--|--------------------------|


                                                      
--------------------------|--------------------------|
--------------------------|--------------------------|
--2--2--2--2--2--2--2--2--|--------------------------|
--------------------------|--3--3--3--3--3--3--3--3--|


                                                                         
--------------------------|----------------------|----------------------|
--------------------------|----------------------|----------------------|
--------------------------|----------------------|----------------------|
--3--3--3--3--3--3--3--3--|----3----3----3----3--|----3----3----3----3--|


                                                                           
------------------------|------------------------|------------------------|
------------------------|------------------------|------------------------|
------------------------|------------------------|--2----2--2--2----2--2--|
--2----2--2--2----2--2--|--2----2--2--2----2--2--|------------------------|


                                                               
-------------------|----------------------|-------------------|
-------------------|----------------------|-------------------|
--0----------------|----------------------|-------------------|
-------------------|--3----3--3--3--------|--3----------------|


                                                                    
-------------------|------------------||---------------------------|
-------------------|------------------||*----------7/9-7----7------|
--0----------------|------------------||*--------------------------|
-------------------|------------------||---7-7-7-7-----------------|


                                                        
----------------------------|--------------------------|
----------------------------|----------7/9-7----7------|
--0-----------7----9-7------|--------------------------|
---------3------10-----10-9-|--7-7-7-7-----------------|


                                                                               
--------------------------||-----------|-------------------|------------------|
-----0--------2----------*||-----------|-------------------|------------------|
--------2--------4-------*||--2--------|--0----------------|------------------|
--3--------3--------5-----||-----------|-------------------|------------------|


                    
------------------||
------------------||
------------------||
------------------||


_______________________________________________________
Contribuição: Elias Rodrigues de Oliveira Filho(wally_baixista@ibest.com.br)


Enviada por Sem inscrição
Nº de acordes: