O Rappa

O Que Sobrou Do Céu

O Rappa

2.074 exibições
Faltou luz mas era dia...

|-----------------------  |-----------------------
|-----------------------  |-----------------------
|-----------------------  |----------------3------
|-5v---5--5--3-4--------  |-5v---5--5--3-4--------

O chá pra curar esta azia....

|-------------------------------------------------
|--------------------------------------------------
|-----4-2-----4-------------------------------------
|-5-5-----5-4-------5-4-5-4-5-----------------------

Pra gente veeeeeEEEEErr por entre os predio e nós....

|--------------------------------------------------
|---------------------------------------------------
|--------------------------5-7----------------------
|-7-7-7-5--3--2-3-7--7-7-5-------------------------

Final

Pra gente veeeeeEEEEEEErr por entre os predio e nós....

|--------------------------------------------------
|--------------------------------------------------
|--------------------------5-7---------------------
|-7-7-7-5--3--2-3-7--7-7-5-------------------------

Pragente ver, o q sobrou do céu éu éu éu éu...

|---------------------------------------------------------
|---------------------------------------------------------   (4X)
|-----------------------------2-h4-4-4-4-4--2-h4-4-4-4-4--  
|-2-h4-4-4-4-4--2-h4-4-4-4-4------------------------------


|-----------------------  |-----------------------
|-----------------------  |-----------------------
|-----------------------  |----------------3------
|-5v---5--5--3-4--------  |-5v---5--5--3-4--------


_______________________________________________________
Contribuição: MAhalo(psicopata.d@bol.com.br)


Enviada por Sem inscrição
Nº de acordes: