Nx Zero

Além De Mim

Nx Zero

1.838 exibições
G------------------------------------------------------------------------
D------------------------------------------------------------------------
A-------------------2222222222222222-00000000000000000-00000000000000000-
E-00000000000000000------------------------------------------------------

G----------------------------------------------------------------
D----------------------------------------------------------------
A-00----00--0---0----------------------------------------------0-
E-------------------17/0----0----0-12/0---0---0-0----0----00002--


G------------------------------------------
D------------------------------------------
A-00000000000000000-00000000000000000------
E------------------------------------------

G------------------------------------------
D------------------------------------------
A------------------------------------------
E-00000000000000000-00000000000000000------

G------------------------------------------
D------------------------------------------
A-2--0-2--4--0-----------------------------
E------------------------------------------

G------------------------------------------
D------------------------------------------
A-00000000000000000-00000000000000000------
E------------------------------------------

G------------------------------------------
D------------------------------------------
A--2--0-2--4--4-0---0---0000---0-0---0000--
E------------------------------------------

(2x)
G------------------------------------------------------------------------
D------------------------------------------------------------------------
A-------------------2222222222222222--4444444444444444-00000000000000000-
E-00000000000000000------------------------------------------------------
                          
A-------------------2222222222222222-00000000000000000-00000000000000000-
E-00000000000000000-------------------------------------------------------

A-00000000000000000-0000000000000000---------------------
E------------------------------------0-00000000000000000-

A-----------------0-00000000000000000-00000000000000000-
E-000000000000002---------------------------------------

G------------------------------------------
D------------------------------------------
A------------------------------------------
E-00000000000000000-00000000000000000------

G-----------------------------------------------------------------------
D-----------------------------------------------------------------------
A-2222222222222222-4444444444444444-00000000000000000-00000000000000000-
E-----------------------------------------------------------------------

G-----------------------------------------------------------------------
D-----------------------------------------------------------------------
A-2222222222222222-4444444444444444-00000000000000000-------------------
E-----------------------------------------------------00000000000000000-

G-----------------------------------------------------------------------
D-----------------------------------------------------------------------
A-2222222222222222-4444444444444444-00000000000000000-------------------
E-----------------------------------------------------00000000000000000-

G-----------------------------------------------
D-----------------------------------------------
A-2222222222222222-4444444444444444-000000000---
E---------------------------------------------5-
                                                                                                           
"Ponte"
G-----------------------------------------------------------------
D---------------------------------------------------------------9-
A------------------------------------7---------7-9----------------
E-0000---000---0000000(2x)----------------------------------------

G-------------------------11-----16---14—13/14-----------
D-7---------------6/7-------14---------------------14----
A--------------------------------------------------------
E--------------------------------------------------------
"Fim Ponte"

G-----------------------------------------------------
D-----------------------------------------------------
A-7777777777777777------------------00000000000000000-
E------------------7777777777777777-------------------


G---------------------------------------------------------------
D---------------------------------------------------------------
A-0000-2222-4444-6666---------------------------222222222222222-
E-----------------------------00000000000000000-----------------

A-4444444444444444-00000000000000000-
E------------------------------------

G------------------------------------------
D------------------------------------------
A--------------------------2222222222222222
E-00000000000000000------------------------

G------------------------------
D------------------------------
A-4444444444444444-000000000---
E----------------------------5-


by CH_Max
msn:chetnies@hotmail.com


Enviada por Sem inscrição
Nº de acordes: