Nirvana

Polly

Nirvana

1.698 exibições
   RIFF 1:
G ------------------------------------
D ------------------------------------
A -----------------5--5--3--3--3--3---
E --0--0--3--3--3---------------------
                                                                                

   RIFF 2:
G ------------------------------------
D ------------------------------------
A --5--5--3--3--3--3--------0--1--1--1
E --------------------3--3------------


Polly

   RIFF 1:
Polly wants a cracker 
Think I should get off of her first 
I think she wants some water 
To put out the blow torch

   RIFF 2:
It isn't me 
We have some seed 
Let me clip 
Your dirty wings 
Let me take a ride 
Don't hurt yourself 
I want some help 
To help myself 
I've got some rope 
You have been told 
I promise you 
I have been true 
Let me take a ride 
Don't hurt yourself 
I want some help 
To help myself

   RIFF 1:
Polly wants a cracker 
Maybe she would like more food 
She asks me to untie her 
A chase would be nice for a few

   RIFF 1:
Polly says her back hurts 
And she's just as bored as me 
She caught me off my guard 
It amazes me, the will of instinct

_______________________________________________________
Contribuição: Denny Sakakibara(denny.sakakibara@bol.com.br)


Enviada por Sem inscrição
Nº de acordes: