Nenhum de Nós

Camila, Camila (Tablatura)

Nenhum de Nós

2.088 exibições
Começa com o violão depois entra o baixo...

Intro
G -|----------------------|
D -|----------------------|
A -|5--55----5--5-5h4-55--|
E -|----------------------|

Verso 1
G -|--------------------------------------------------------------------------|
D -|--------------------------------------------------------------------------|
A -|5-55-5-5-5h4-55-7-77-7-7-7h6-77-----------------5--55--5--5-5h4-55--3/5\3-|
E -|--------------------------------3-33-3-3-3h2-33---------------------------|
>>>>>>>>>>>>>>>>>>>>>>>>>>>>>>>>>>>>>>>>>>>>>>>>>>>>>>>>>>>>>>essa parte (3/5\3)
							é tocada só algumas vezes

Refrão: ("camila...camila...")
G -|------------------------------------------------|
D -|------------------------------------------------|
A -|3-33-3-3-33---2-22-2-2-22----------------------5|
E -|----------------------------5-55-5-5-55--5-7-5--|

Verso 2 ("E eu que tenho medo...")
G -|-------------------|
D -|-------------------|
A -|-----------2---3---|  2X
E -|-3----1------------|

G -|------------------------------------------------------------------------------|
D -|------------------------------------------------------------------------------|
A -|5--55-5--5-5h4-55/--7--77--7--7-7h6-77--------------------5--55--5--5-5h4-55--|
E -|---------------------------------------3--33----3-2-3-2-3---------------------|

Verso 1, Refrão

"E eu que tinha apenas 17 anos..."
G -|--------------------------------------------------------|
D -|--------------------------------------------------------|
A -|-3-33-3-3-33-----2-22-2-2-22----------------5-55-5-5-55-|  2X
E -|-------------------------------5-55-5-5-55--------------|
 
Refrão

Parte final
G -|----------------------------------|
D -|----------------------------------|
A -|----------------------------------|  
E -|-5--55--5--5-5h4-5/7\5------------|

Verso 1 



Enviada por Sem inscrição
Nº de acordes: