Natiruts

Presente De Um Beija-flor

Natiruts

2.117 exibições
   Antes do solo de guitarra:                                     
G -------------------------------------------------------------------------------
D --------------4--3-----------1--1-----1----------------------------------------
A -----1--2--4--------1--4--1--------4-------------------------------------------
E --4----------------------------------------------------------------------------
                                                                               

   Junto com o solo de guitarra:
G -------------------------------------------------------------------------------
D --------------1--4--3-----3--1-----------------1--------1--------------------1-
A -----1--2--4-----------4--------4--1-----1--4-----1--4-----4--1-----1--2--4----
E --4-----------------------------------4--------------------------4-------------
                                                                               

G -------------------------------------------------------------------------------
D --4--3-----3--1-----4--4--4--3--3--3--1----------------------------------------
A --------4--------4-------------------------------------------------------------
E -------------------------------------------------------------------------------
                                                                                

   RIFF 1:
G -------------------------------------------------------------------------------
D -----------------------------------------------------1--------1----------------
A --------------------4--4--4--4--------4--1-----1--4-----1--4-----4--1----------
E --4--2--4--2--4--2--------------4--4--------4--------------------------4--2--4-
                                                                                

G -------------------------------------------------------------------------------
D --------------------------------------------1----------------------------------
A -----------4--4--4--4--------4--1-----1--4-------------------------------------
E --2--4--2--------------4--4--------4-------------------------------------------
                                                                                
   RIFF 2:
G ------------------------------------------------------ 
D --------------4--3-----------1--1-----1--1-----1------ 
A -----1--2--4--------1--4--1--------4--------4-----4--1 
E --4--------------------------------------------------- 
                                                          

Presente de um Beija-Flor

  RIFF 1:
O Beija-flor que trouxe meu amor
Voou e foi embora
Olha só como é lindo meu amor
Estou feliz agora

   RIFF 2:
Veja só a névoa branca que sai de trás do bambuzal
Será que ela me faz bem ou será que me faz mal
Eu vou surfar no cêu azul de nuvens doidas
Da capital do meu país
Pra ver se esqueço da pobreza e violência
Que deixa o meu povo infeliz

   RIFF 1:
Beija-flor que trouxe meu amor
Voou e foi embora
Olha só como é lindo meu amor
Estou feliz agora

   RIFF 2:
E a menina que um dia por acaso veio me dizer
Que não gostava de meninos tão largados
Que tocam reggae e M.P.B
Mas isso é coisa tão banal, perto da beleza do Planalto Central
E das pessoas que fazem do cerrado
O habitat quase ideal

   RIFF 1:
Beija-flor que trouxe meu amor
Voou e foi embora
Olha só como é lindo meu amor
Estou feliz agora

   RIFF 2:
Fim de ano vou embora de Brasília que é pra eu ver o mar
Mas diz pra mão lá pro final de fevereiro é que eu vou voltar
Que é pra surfar no céu azul de nuvens doidas
Da capital do meu país
Pra ver se esqueço da pobreza e violência
Que deixa o meu povo infeliz

   RIFF 1:
Beija-flor que trouxe meu amor
Voou e foi embora
Olha só como é lindo meu amor
Estou feliz agora

by André Souza


Enviada por Sem inscrição
Nº de acordes: