Natiruts

Liberdade Pra Dentro Da Cabeça

Natiruts

2.413 exibições
* Notas de baixo( seguindo a escala pentatônica de C#m )

      Bm Cm C#m                    C#m Cm Bm 
  G|----------------------------|-----------------------------|                      
  G|----------------------------|-----------------------------|
  D|-------------------2-2-2p4-2...prolongar...---2--4/6-4~~--|
  A|--2--3---4----2p4-----------|--------------2p4------------|
  E|----------------------------|-----------------------------|

    Bm Cm C#m                      C#m Cm Bm             Dm   
  G|----------------------------|-----------------------------|
  D|-------------------2-2-2p4-2...prolongar..----------------|
  A|--------------2p4-----------|-----------------------------|
  E|----------------------------|-------------2-5-6/0----10/0-|


     A         C#m         Bm           Dm             A
  G|---------|-----------|----------------------------|---
  D|---------|-----------|----------------------------|---
  A|----7--4-|-44--7-4-0-|-22-0-2-0-2-4-55--0-5-------|---
  E|-55------|-----------|----------------------0-2-4-|55- repete a seqüência
 
 * Depois, durante as trocas de notas entre C#m e Bm, o baixo pode ser improvizado em seqüências 
pentatônicas de ambas as notas.


A    C#m                   Bm   Dm
Liberdade p'ra dentro da cabeça

A    C#m                   Bm   Dm
Liberdade p'ra dentro da cabeça

C#m    Bm            C#m  
Quando você for embora 
       Bm            C#m
Não precisa me dizer 
              Bm           C#m
O que eu não quero jogo fora
     Bm            C#m
Você pode entender 
        Bm             C#m
Desigualdades e a luta 
              Bm   C#m
Afim de encontrar
       Bm          C#m
A liberdade e a paz 
      Bm            C#m Bm C#m Bm
Que a alma precisa ter

C#m
Estar com você
Bm               C#m
Na virada do sol
             Bm
É compreender que o que há de melhor
      C#m           Bm              C#m          Bm
Tá na vida, na transformação da natureza que me traz a noção
      C#m          Bm
Na verdade eu não vou chorar
     C#m           Bm
Hoje sei, o que o terra veio me ensinar
          C#m              Bm
Sobre as coisas que vêm do coração
           C#m               Bm          Dm
Pra que eu possa trazer para mim e pra você eee....

A    C#m                   Bm   Dm
Liberdade p'ra dentro da cabeça
A    C#m                   Bm   Dm
Liberdade p'ra dentro da cabeça....


Enviada por Sem inscrição
Nº de acordes: