Maná

Vivir Sin Aire

Maná

444 exibições
As estrofes são assim:

E--~3---------------------~3--
A------~2--~3--~5-5h7-7-5-----
D--------------------5--------
G-----------------------------

No pré-refão ( pero no puedo..) fica assim:

E------------------------5-3--3-3----------------
A--3--3-5--5-7--5-3--5-3----------3-5-5h7-------5
D----------------------------------------5-5h7-5-
G------------------------------------------------

o Refrão:

E----------3-3-5-3-2-0-------------------------------
A--7--5-3---------------7--5-3--5-5h7--5h7--------5-7
D------------------------------------5----5-5h7-5----
G----------------------------------------------------
 
 


Enviada por Sem inscrição
Nº de acordes: