Turn your E string into a C#

Intro (begin at 0:13)
G :-------------------------------------------------
D :-------------------------------------------------
A :-------------------------0-0-0-------------------
C#:-5-5-5-------1-1-1-------------------3-3-3-----7-

Verses
G :-------------------------------------|X2
D :-------------------------------------|X2
A :--------------------0----------------|X2
C#:-5--------1------------------3-------|X2

1st Pre Chorus
G :--------------------------------------------------
D :--------------------------------------------------
A :--------------------------------------------------
C#:-1------5-3------7-5------7-8---0----1------5-3---

Chorus (Play it 4 times for the last chorus)
G :-------------------------------------------------|X2
D :-------------------------------------------------|X2
A :-------------------------0-0-0-------------------|X2
C#:-5-5-5-------1-1-1-------------------3-3-3-----7-|X2

2nd Pre Chorus
G :-----------------------------------------|X2
D :-----------------------------------------|X2
A :-----------------------------------------|X2
C#:-1--------5-3--------7-5-------7-8---0---|X2

Bridge
G :---------------------------------------------------
D :---------------------------------------------------
A :---------------------------------------------------
C#:-1-1-1----1-1-3-3-3----3-3-5-5-5-7-7-7-8-8-8-0-0-0-

G :---------------------------------------------------------------------
D :---------------------------------------------------------------------
A :---------------------------------------------------------------------
C#:-1-1-1----1-1-3-3-3----3-3-0-0-0----0-0-0-0-0----0-0/12-12--10-10--8-

ICQ: 165298592


Enviada por Sem inscrição
Nº de acordes: