Intro:
G-----------------------|----------------------------|
D----2-----------2----|------5------------------3-|
A--3----2-----0----3-|---3-------5-----7--------|
E------5--------1-----|---------3----5-----1-----|

FASE 1
G-----------------------------------------------------------|
D-----------------------------------------------------------|   (TRÊS VEZES)
A---3-3-3-3-5--------------------------------------------|
E----------------3-3-3-3-3--5-5-5-5-3--1-1-1-1----|

FASE 2
G----------------------------------------------------------|
D----2----------------------------------------------------|
A--0------2---3----5------------------------------------|
E-------3---1---3----------------------------------------|

Solo:
G-------------|
D-----3-4-5-| (QUATRO VEZES)
A---3---------|
E-------------|

Refrão:
G--------------------------------|
D-----------------------------7-|  (QUATRO VEZES)
A-----------------5-5-5-5-----|
E------3-3-3-3----------------|

Pós- Refrão:
G----------------------|
D----------------------|
A--0--12-------------|
E---------1-1---3-3-|

REPETE SOLO:

REPETE INTEIRA:

FASE 3
G-----------------------------------------------------------------------|
D-----------------------------------------------------------------------|
A--3-3-3-3-2-2-2-2-1-1-1-1-5-5-5-5-(2 X)-----------------3-|
E-----------------------------------------------------1-2-1-2-1-2--|

Tire suas mãos de mim.... (FASE 1)

Você pode até duvidar...(FASE 2)

Nos perderemos entre monstros... (FASE 1)

Para que esse nosso egoísmo... (FASE 2)

Brigar pra quê.....(final)  (FASE 3)
 
 


Enviada por Sem inscrição
Nº de acordes: