Legião Urbana

Geração Coca-Cola

Legião Urbana

4.347 exibições
Tema principal:
"Quando nascemos..."
G---------------------------------------------|
D----------------------4-5-4------------------|
A------------------4-5-------5-------4-5-4----|
E--7-77-77-7-77-77---------------5---------5--|


"somo os filhos..."  "somos burgueses..."   "somos o futuro da nação..."
G-------------------|----------------------|--------------------------|
D-------------------|---------55555--------|--------------------------|
A-------------------|------55--------------|--------------------------|
E-77-55-3333--------|--77------------------|--77-55-333333------------|

"Geração..."
G----------|
D----------|
A-----5----|
E--55---77-|


Vocalização:    (uÔÔô... Ôô...)
2x                      1x
G----------------------|----------------------|
D----------------------|-5(12x)-7(12x)-9(12x)-|
A----------------------|----------------------|
E-3(12x)-5(12x)-7(12x)-|----------------------|
 
 


Enviada por Sem inscrição
Nº de acordes: