Legião Urbana

Faroeste Caboclo

Legião Urbana

2.593 exibições
Introdução
------------------------------------------------------------
------------------------------------------------------------
--3---2--------3---2---------3---2-----------3---2--------5-
--------2---3--------2---3-----------2---3-----------2------

Parte 1
--------------------------------------------------------
--------------------------------------------------------
2---3---5------------2---3---5----------2---3---5-------
-----------2---3----------------2---3-------------2---3-

Parte 2
---------------------------
--------------------------- (Referente ao Reggae)
-----5------------------5--
-3---------0---1---3-------
Queda
---------------------------------------
---------------------------------------
5---3---2-----------3---2------0-------
------------5---3-----------0-------3--

Parte 4
--------------------------------------------
--------------------------------------------
--------------------------------------------
-3-1-0-0-1-0-1-0-1-3-1-0-0-1-0-1-0-1-3-1-0--
(agora o santo cristo era bandido...)
---------------------------------------------------
---------------------------------------------------
---------------------------------------------------
3---------3-----------3------------3------------3--
...conheceu uma menina e de todos seus pecados ...

Repete Intro
------------------------------------------------
------------------------------------------------
------------------------------------------------
-3--3--3----5--5--5--5----1--1--1----3--3--3--3-
Parte Rock
---------------------------------
---------------------------------
---------------2--3--0---5---5---
3----3--5------------------------
ao terminar o rock:
------------------------------------------------
------------------------------------------------
------------3--3--3--3--------------------------
-3--3--3-----------------1--1--1----3--3--3--3--
---------------------------------------------------------
---------------------------------------------------------
2---3---5------------2---3---5----------2---3---5--------
-----------2---3----------------2---3-------------2---3--
Repete Introdução:
------------------------------------------------------------
------------------------------------------------------------
--3---2--------3---2---------3---2-----------3---2--------5-
--------2---3--------2---3-----------2---3-----------2------
-------------------------------------
-------------------------------------
-------------------------------------
-3-3-3--4--4----0--1--1--1---3---3---
------------------------------------------------------------
------------------------------------------------------------
--------------------------3--3------0---3---2---0--0---3--3-
--3---3---2---2----0---0--------3---------------------------
------------------------------------------------------------
------------------------------------------------------------
------------------------------------------------------------
-3-3-3--4--4----0--1--1--1---3---3------3--3---2--2---0--0--
---------------------------------------------
---------------------------------------------
--3--3-------0--3--2---2--2----0---0---------
---------3----------------------------3---3--
---------------------------------------------
---------------------------------------------
--3--3-------0--3--2---2--2----0---0---------
---------3----------------------------3---3--
-------------------------------------------------
-------------------------------------------------
-------------------------------------------------
-3--3---2--2---1--1---3--3-----3--3---2--2--0--0-
-----------------------------------------------
-----------------------------------------------
--3--3-------0--3--2---2--2----0-----0---------
-----------3----------------------------3----3-
----------------------------
----------------------------
0---3--3---2--2---0--0------
-------------------------3--
--------------------------
--------------------------
--------------------------
-3--3---4--4---1--1--3--3-
Repete Parte 1:
-----------------------------------------------------
-----------------------------------------------------
2---3---5---------2---3---5---------2---3---5--------
-----------2---3------------2---3-------------2---3--
(Finalmente tamo acabando...)
-------------------------------------
-------------------------------------
---3---2--0--3-----3---2-------0-----
---------------------------0------3--
...o morro declarava que joão de santo cristo... 
------------------
------------------
3--2-----0----5---
------0-----------
que só faz... 
-------------------------------
-------------------------------
3---1--------------------------
-------3---3--5--3--5--3--5--3-
Sofrer...
(repete até terminar)
Escute a música para pegar o tempo da música e tente criar variações na linha.  
 
 
 


Enviada por Sem inscrição
Nº de acordes: