Legião Urbana

Eduardo E Monica

Legião Urbana

13.528 exibições
Ritmo 4/4
   
-Cada "-" entre os números vale um tempo, portanto a parte que tem 0--4--5--, 
são as notas E, G# e A, cada uma com dois tempos, porém a próxima parte 3h4-5--, 
eh um ligado da nota C com C#, durando um tempo, onde a primeira nota dura 1/4 
de tempo e a outra completa o tempo (escutar para pegar o tempo certo), 
seguido da nota D durando 2 tempo, e assim por diante.

Em algumas partes do riff a medição do tempo seria difícil de ser feita mesmo com partituras, portanto escutem a música

Riff1

G|----------------------------------|
D|----------------------------------|
A|---------3h4-5----------------0h2-|
E|0--4--5---------2--0--0h3-3h4-----|


Riff2
     ~~~~~~*
G|------------------------------------|
D|------------------------------------|
A|-----------3h4-5----------------0h2-|
E|0--4--(5)---------2--0--0h3-3h4-----|


Riff3

G|-----------------------------------|
D|-----------------------------------|
A|-----------3h4-(555)p4h5-(777..)**-|
E|0--4--(5)--------------------------|


Riff4 (ritmo impreciso)

G|-----------------------------------------------------------------------------|
D|-----------------------------------------------------------------------------|
A|---------7-55-4-22-----------------------7-55-4-22---------------------------|
E|7-5-4-22-----------(55)-5h6-7---7-5-4-22-----------(55)-5h6-(777...)-7-5-4-2-| volta para Riff1


Riff5
  {.....n vezes......}
G|--------------------|-----------|
D|--------------------|-----------|
A|-(555)p4-5/7(77...)-|-----------|
E|--------------------|-7-5-4-2-0-|

*trinado - toca-se rapidamente a nota entre parênteses usando asucessivos hammer-on e pull-off
**nota fantasma - abafa-se a nota tocada soltando levemente a mão esquerda da corda


Enviada por Sem inscrição
Nº de acordes: