Legião Urbana

Daniel Na Cova Dos Leões

Legião Urbana

1.896 exibições
|--------------------------|
|-7-7----------------------|
|-----5-7-7/4----5-5-7-5-7-|
|--------------------------|x12

|----------------------------------|
|----------------------------------|
|55555555-------333333-22222-------|
|--------1111111-------------------|x2

|--------------------------|
|-7-7----------------------|
|-----5-7-7/4----5-5-7-5-7-|
|--------------------------|x12

|----------------------------------|
|----------------------------------|
|55555555-------333333-22222-------|
|--------1111111-------------------|x2

|--------------------------|
|-7-7----------------------|
|-----5-7-7/4----5-5-7-5-7-|
|--------------------------|x8

|----------------------------------|
|----------------------------------|
|55555555-------333333-22222-------|
|--------1111111-------------------|x2

|--------------------------|
|-7-7----------------------|
|-----5-7-7/4----5-5-7-5-7-|
|--------------------------|x17
 
 


Enviada por Sem inscrição
Nº de acordes: