Kiss

Rock And Roll All Night

Kiss

394 exibições
(Intro)
G:4/6-6---6-6--|
D:------6-----6|
A:-------------|
E:-------------|

G:--------------------|     |--------------------|     |4/6-6---6-6--|
D:--------------------| -x4 |--------------------| -x1 |------6-----6|
A:-----------6-6-4-3--|     |4-4-3-1----6-6-4-3--|     |-------------|
E:4-4-2-1-0----------6|     |--------4----------6|     |-------------|

G:--------------------|     |--------------------|     |4/6-6---6-6--|
D:--------------------| -x2 |--------------------| -x1 |------6-----6|
A:-----------6-6-4-3--|     |4-4-3-1----6-6-4-3--|     |-------------|
E:4-4-2-1-0----------6|     |--------4----------6|     |-------------|

G:--------------------------------|
D:-----------------4-4-4-4-4-4-4-4|
A:7-7-7-7-7-7-7-7-----------------|
E:--------------------------------|

G:----------------------------------------------|
D:----------------------------------------------|
A:--4-4-3-1----6-6-4-3----4-4-3-1---6-6-4-3-----|
E:4---------4----------6----------4---------6--4|

G:4/6-6---6-6--|
D:------6-----6|
A:-------------|
E:-------------|

G:--------------------|     |--------------------|     |4/6-6---6-6--|
D:--------------------| -x2 |--------------------| -x1 |------6-----6|
A:-----------6-6-4-3--|     |4-4-3-1----6-6-4-3--|     |-------------|
E:4-4-2-1-0----------6|     |--------4----------6|     |-------------|

G:--------------------|     |--------------------|     |4/6-6---6-6--|
D:--------------------| -x2 |--------------------| -x1 |------6-----6|
A:-----------6-6-4-3--|     |4-4-3-1----6-6-4-3--|     |-------------|
E:4-4-2-1-0----------6|     |--------4----------6|     |-------------|

G:--------------------------------|
D:-----------------4-4-4-4-4-4-4-4|
A:7-7-7-7-7-7-7-7-----------------|
E:--------------------------------|

G:----------------------------------------------|
D:----------------------------------------------|
A:--4-4-3-1----6-6-4-3----4-4-3-1---6-6-4-3-----|
E:4---------4----------6----------4---------6--4|

G:4/6-6---6-6--|
D:------6-----6|
A:-------------|
E:-------------|

G:--------------------|     |--------------------|     |4/6-6---6-6--|
D:--------------------| -x2 |--------------------| -x1 |------6-----6|
A:-----------6-6-4-3--|     |4-4-3-1----6-6-4-3--|     |-------------|
E:4-4-2-1-0----------6|     |--------4----------6|     |-------------|

G:--------------------|     |--------------------|     |4/6-6---6-6--|
D:--------------------| -x2 |--------------------| -x1 |------6-----6|
A:-----------6-6-4-3--|     |4-4-3-1----6-6-4-3--|     |-------------|
E:4-4-2-1-0----------6|     |--------4----------6|     |-------------|

G:--------------------------------|
D:-----------------4-4-4-4-4-4-4-4|
A:7-7-7-7-7-7-7-7-----------------|
E:--------------------------------|

G:----------------------------------------------|
D:----------------------------------------------|
A:--4-4-3-1----6-6-4-3----4-4-3-1---6-6-4-3-----|
E:4---------4----------6----------4---------6--4|

G:4/6-6---6-6--|
D:------6-----6|
A:-------------|
E:-------------|

G:--------------------------------|
D:-----------------4-4-4-4-4-4-4-4|
A:7-7-7-7-7-7-7-7-----------------|
E:--------------------------------|

(Outro)
G:6-4---4--------------|
D:----6---6-4---4------|
A:------------6---6-4--|
E:--------------------4|


Enviada por Sem inscrição
Nº de acordes: