Kiss

All The Way

Kiss

99 exibições
Transcribed by Emil Ortenmark, emil@kissasylum.com

Tuned down 1/2-step

Comments: These are some cool riffs if you ask me. Gene doubles the guitars
for the verse and then goes into a little twist on his usual major-chord
excursions for the chorus. I love those little sixteenth-note flurries he
throws in towards the end of Rhy. Fig 2. The variation where he slides up
to the octave that appears during the outro chorus is way cool too. The 
slide in Riff 1 occurs three times. Just ram that slide as far up the finger-
board as you can stand (and do it quickly), then come down with a very slow
slide. Might take some practice.


Key:
/    = slide up
\    = slide down
b    = bend (whole step)
b^   = bend (1/2 step)
b^^  = bend (1 1/2 steps)
pb   = pre-bend
r    = release-bend
t    = tap with righthand finger
h    = hammer-on
p    = pull-off
~    = Vibrato
*    = Natural Harmonic
#(#) = Trill
**   = Artificial Harmonic
x    = Dead notes (no pitch)
P.M. = Palm mute (- -> underneath indicates which notes)
(\)  = Dive w\bar
(/)  = Release w\bar
Tp   = Tap w\plectrum




Rhythm Fig. 1
                                                
Gb|---------------------------------------------------|
Db|-----------------------------5---------------------|
Ab|--0--------5------------------------3--------------|
Eb|-----------------------2--3------------------------|




End 1
                                         
Gb|---------------------------------------------------|
Db|---------------------------------------------------|
Ab|--0--------5-------------------3-------------------|
Eb|---------------------------------------------------|



End 2
                                           
Gb|---------------------------------------------------|
Db|---------------------------------------------------|
Ab|----2--2----2--2----5----5----5--5--0--3-----------|
Eb|---------------------------------------------------|



End 3
                                                 
Gb|---------------------------------------------------|
Db|---------------------------------------------------|
Ab|----2--2----2--2----5----5----5--5-----5--6--------|
Eb|------------------------------------7--------------|



Rhythm Fig. 2
                                                 
Gb|---------------------------------------------------|
Db|-------6-------------------------------------------|
Ab|--7---------7--5--------------------------5--------|
Eb|------------------7--5----5--3----2----0-----------|
    < - - - - - - - - - 2x - - - - - - - - - - >

                                                   
Gb|---------------------------------------------------|
Db|-------6----------------------6--------------------|
Ab|--7---------7-5----5--7--7---------7-5----5--------|
Eb|----------------7----------------------7-----------|



End 1
                                                
Gb|---------------------------------------------------|
Db|---------------------------------------------------|
Ab|----2--2----2--2----5----5----5--5--0--3-----------|
Eb|---------------------------------------------------|



End 2
                                                 
Gb|---------------------------------------------------|
Db|---------------------------------------------------|
Ab|----2--2----2--2----5----5----5--5-----5--6--------|
Eb|------------------------------------7--------------|



Rhythm Fig. 3
                                                 
Gb|---------------------------------------------------|
Db|-------6-------------------------------------------|
Ab|--7---------7--5--------------------------5--------|
Eb|------------------7--5----5--3----2----0-----------|
    < - - - - - - - - - - 2x - - - - - - - - - - >

                                                          
Gb|---------------------------------------------------|
Db|-------6/---14-12-----------------------14-12------|
Ab|--7---------------14----11--------11----------14\--|
Eb|----------------------------12---------------------|


                                                  
Gb|---------------------------------------------------|
Db|---------------------------------------------------|
Ab|----2--2----2--2----5----5----5--5-----5/-7--------|
Eb|------------------------------------7--------------|





ALL THE WAY
Gene Simmons

"One, two, three, four"

[Rhy. Fig 1 w/ End 1] (2x)

[Rhy. Fig 1 w/ End 1]
You've got a lot to say
Every night and every sunny day
[Rhy. Fig 1 w/ End 2]
It's the same thing you've been sayin' to me
Every day

[Rhy. Fig 1 w/ End 1]
You say it's within your heart
You keep repeatin' that we'll never part
[Rhy. Fig 1 w/ End 3]
I'm so finally glad to hear you stop
For a day

[Rhy. Fig 2 w/ End 1]
You just keep talkin' louder
Complain to your mother and father
One of these days you'll push me all the way

[Rhy. Fig 1 w/ End 1]
And you wear it 'cause it fits you well
Baby, baby, you're not hard to sell
[Rhy. Fig 1 w/ End 2]
I'll tell you what you want to hear
For a day

[Rhy. Fig 1 w/ End 1]
So if you think you need advice
Just come to me, don't compromise
[Rhy. Fig 1 w/ End 3]
Baby, baby you are hypnotized
Every day

[Rhy. Fig 2 w/ End 1]
And you just keep talkin' louder
Complain to your mother and father
One of these days you'll push me all the way

[Rhy. Fig 1 w/ End 1]
[Rhy. Fig 1 w/ End 2]
[Rhy. Fig 1 w/ End 1]
[Rhy. Fig 1 w/ End 3]

[Rhy. Fig 2 w/ End 2] 
Yes, you just keep talkin' louder
Complain to your mother and father
One of these days you'll push me all the way

[Rhy. Fig 3] 
Yes, you just keep talkin' louder
Complain to your mother and father
One of these days you'll push me all the way

[Rhy. Fig 2 w/ End 2] 
Yes, you just keep talkin' louder
Complain to your mother and father
One of these days you'll push me all the way

(fade out)


Enviada por Sem inscrição
Nº de acordes: